Login or Register to remove this ad. | Advertise Here

Blades of Serenity (Brutal Legend) Guitar Tab

Submitted: Apr 22, 2010 by hslesperance (Last updated: Feb 18, 2011)

5
Average: 5 (1 vote)
Download | Listen
Game: Brutal Legend
Composer(s): Peter McConnell
Style: 2 or more instruments, Artificial harmonics, Natural harmonics, Transcription

AutoScroll: Slow | Medium | Fast
Blades of Serenity
Brutal Legend
Composed by Peter McConnell
Tabbed by hslesperance
4/22/10

Standard Tuning


Guitar 1
                                                         NH NH NH NH AH
e--------------------------------------------------------7---------------
B---------------------------------------5----------------------7-----5---
G------------------------------------4-----4----------4-----5-----7------
D------4-----4-----4-----4-----4--5-----------5----2---------------------
A---2-----2-----2-----2-----2-----------------3--0-----------------------
E------------------------------------------------------------------------
                               NH NH NH NH
e------------------------------7-----------------------------------------
B---------------5--------------------7-----------------------------------
G------------4-----4--------------5-----7--------------------------------
D------4--5-----------5--------------------------------------------------
A---2--------------------------------------------------------------------
E------------------------------------------------------------------------
                                 g
e------------------------------------------------------------------------
B--------5--8--7--3------------------------------------------------------
G------------------------------------------------------------------------
D------------------------------------------------------------------------
A--------7--10-9--5--7--7p5p3-----5--------------------------------------
E---0/7-----------------------7--3---------------------------------------

e------------------------------------------------------------------------
B------------------------------------------------------------------------
G------------------------------------------------------------------------
D---4h5p4---4----------------5p4---4------------------5p4---4------------
A---------5----------------------5------------------5-----5--------------
E------------------------------------------------------------------------

e------------------------------------------------------------------------
B------------------------------------------------------------------------
G------------------------------------------------------------------------
D------4--5--4--5--4--5--4--5--4--5--4--5--4--5--4--5--4h5p4---------2---
A-------------------------------------------------------------5--5\2-----
E---0--------------------------------------------------------------------

e------------------------------------------------------------------------
B------------------------------------------------------------------------
G----------------------------------------------------------------2-----2-
D------5-----5-------7-----7----4h5p4----------2-----5-----5-------------
A---0-----3-----3/5-----5-------------5--5--2-----0-----3-----3-----5----
E------------------------------------------------------------------------

e---------0-----------0-------0--0--0--0--0--0--0--0--0--0--0--0--2--2--2
B------------------------------------------------------------------------
G------4-----4-----4-----4---4--4--4--4--4--4--4--4--4--4--4--4--4--4--4-
D---2-----------2-----------2--2--2--2--2--2--2--2--2--2--2--2--0--0--0--
A------------------------------------------------------------------------
E------------------------------------------------------------------------

e-----2--3--3--3--3--5--5--5--5--0--0--0--0--2--2--2--2--3--3--3--3--5--5
B------------------------------------------------------------------------
G----4--------------2--2--2--2--4--4--4--4--4--4--4--4--------------2--2-
D---0---5--5--5--5-0--0--0--0--2--2--2--2--0--0--0--0---5--5--5--5-0--0--
A------3--3--3--3--------------------------------------3--3--3--3--------
E------------------------------------------------------------------------
                                                                  NH AH AH
e---5--5--0--0--0--0--2--2--2--2--3--3--3--3--5--5--5--5--7--5-2-0-------
B---------------------------------------------------------5----------5---
G--2--2--4--4--4--4--4--4--4--4--------------2--2--2--2-----------5-----4
D-0--0--2--2--2--2--0--0--0--0---5--5--5--5-0--0--0--0---2---------------
A-------------------------------3--3--3--3-------------------------------
E------------------------------------------------------------------------


Guitar 2

0:13
e------------------------------------------------------------------------
B------------------------------------------------------------------------
G------------------------------------------------------------------------
D---4------------5-------------------------------------------------------
A---2------------3----7--------------------------------------------------
E---------------------5--------------------------------------------------
0:24
e------------------------------------------------------------------------
B------------------------------------------------------------------------
G------------------------------------------------------------------------
D------------------------------------------------------------------------
A---7----5---------------------------------------------------------------
E---5----3---------------------------------------------------------------
1:03
e------------------------------------------------------------------------
B------------------------------------------------------------------------
G------------4------------------------------------4----------------------
D-------------------------7---5----4---------------------------7---5----4
A---7---------------------------------5--7-------------------------------
E---0--------------------------------------------------------------------

e------------------------------------------------------------------------
B------------------------------------------------------------------------
G---------------4--------------------------------------------------------
D------------------------------------------------------------------------
A---5--7-----------------------------------------------------------------
E------------------------------------------------------------------------

h - hammer on
p - pull off
/ - slide up
\ - slide down
NH- natural harmonic
AH- artificial harmonic
g - grace note