Login or Register to remove this ad. | Advertise Here

Alan and Cerl (Breath of Fire) Guitar Tab

Submitted: Feb 17, 2012 by kpcart (Last updated: Feb 17, 2012)

5
Average: 5 (2 votes)
Download | Listen
Game: Breath of Fire
Composer(s): Yoko Shimomura, Mari Yamaguchi, Yasuaki Fujita, Minae Fujii, Tatsuya Nishimura
Style: Arrangement, Fingerstyle

AutoScroll: Slow | Medium | Fast
Alan and Cerl                                   
"Classical Guitar Video Game Project" - Krzysztof Piotrowicz
(www.youtube.com/kpcart)                  

                                     



                    1/3 Capo VII                                                
     Q    Q    Q    Q               Q    Q    Q    Q       Q    Q    Q    Q     
E||--3--------------7------------|----------------------|--0--------------3----|
B||------------0-----------------|--7---------0----3----|----------------------|
G||-------0----------------------|----------------------|------------0---------|
D||--2---------------------------|-------4--------------|-------2--------------|
A||------------------------------|--5-------------------|--3-------------------|
E||------------------------------|----------------------|----------------------|


  Q    Q    Q    Q       Q    Q    Q    Q       Q    Q    Q    Q     
----------------------|------------0----3----|----------------------|
--3---------0---------|--1----3--------------|--3---------0---------|
------------0---------|------------0---------|------------0---------|
-------0---------0----|-------2--------------|-------0---------0----|
----------------------|--3-------------------|----------------------|
--3-------------------|----------------------|--3-------------------|


  Capo V                                                               
  Q      Q    Q    Q       Q    Q    Q    Q       Q    Q    Q    Q     
--------------7----5----|----------------------|--3--------------7----|
--------------5---------|--7-------------------|------------0---------|
--5-----------5---------|----------------------|-------0--------------|
------------------------|------------4---------|--2-------------------|
---------7--------------|-------6---------6----|----------------------|
--5---------------------|--7-------------------|----------------------|


                           Capo VIII                                          
  Q    Q    Q     Q        Q         Q    Q     Q        Q     Q    H         
-----------------10----|--10--------------8----------|-----------------------|
--7---------0----------|-----------------------12----|--12----------8--------|
-------0---------------|------------------9----------|--------------9--------|
-----------------------|------------10---------------|--------10-------------|
--6--------------------|---8-------------------------|-----------------------|
-----------------------|-----------------------------|---8-------------------|


                           Capo VII                                       
  Q    Q    Q     Q        Q       Q    Q    Q       Q    Q    Q    Q     
--0----2----3----12----|--11----------------------|--0-------------------|
-----------------------|----------------7---------|------------0---------|
------------0----------|----------------8---------|-------0---------0----|
-------2---------------|-----------9---------9----|----------------------|
--0---------------0----|--------------------------|----------------------|
-----------------------|---7----------------------|--0-------------------|


  ^                                                                 
  W                     Q    Q    Q    Q       Q    Q    Q    Q     
--0----------------||---3--------------7----|--2-------------------|
--0----------------||---0---------0---------|--0---------0----3----|
--0----------------||*--0----0--------------|--4---------0---------|
-------------------||*----------------------|-------0--------------|
-------------------||-----------------------|----------------------|
--0----------------||---0-------------------|----------------------|


  Q    Q    Q    Q       Q    Q    Q    Q       Q    Q    Q    Q     
--0--------------3----|----------------------|------------0----3----|
--1-------------------|--3---------0---------|--1----3--------------|
--0---------0---------|--0-------------------|--0---------0---------|
-------2--------------|--0----0---------0----|--2----2--------------|
--3-------------------|----------------------|--3-------------------|
----------------------|--3-------------------|----------------------|


  Q    Q    Q    Q       Q    Q    Q    Q       Q    Q    Q    Q     
----------------------|------------7----5----|----------------------|
--3---------0---------|--1---------5---------|--7-------------------|
--0---------0---------|--2---------5---------|----------------------|
--0--------------0----|--2-------------------|------------4---------|
-------2--------------|-------0--------------|-------6---------6----|
--3-------------------|----------------------|--7-------------------|


  Q    Q    Q    Q       Q    Q    Q     Q        Q     Q    Q     Q     
-----------------7----|-----------------10----|--10----------8----------|
--8---------0---------|--7---------0----------|-------------------12----|
-------0--------------|-------0---------------|--------------9----------|
----------------------|-----------------------|--------10---------------|
--7-------------------|--6--------------------|---8---------------------|
----------------------|-----------------------|-------------------------|


   Q     Q    H           Q    Q    Q     Q        Q    Q    Q    Q     
-----------------------|--0----2----3----12----|--11-------------------|
--12----------8--------|-----------------------|-------------7---------|
--------------9--------|------------0----------|-------------8---------|
--------10-------------|-------2---------------|--------9---------9----|
-----------------------|--0---------------0----|-----------------------|
---8-------------------|-----------------------|---7-------------------|


  Q    Q    Q    Q       Q    Q    E  S S S S S S    Q    Q    Q    Q     
--0-------------------|---------------------0-----|--7-------------------|
------------0---------|------------0------0-----8-|------------0---------|
-------0---------0----|-------0---------0-----9---|-------0---------0----|
----------------------|---------------------------|----------------------|
----------------------|---------------7-----------|----------------------|
--0-------------------|--0------------------------|----------------------|


  Q    Q    Q    Q       Q    Q    Q    Q       Q    Q    Q    Q     
--7-------------------|--0--------------3----|----------------------|
--7---------0---------|--1-------------------|--3---------0---------|
-------0---------0----|--0---------0---------|------------0---------|
--0-------------------|-------2--------------|-------0---------0----|
----------------------|--3-------------------|----------------------|
----------------------|----------------------|--3-------------------|


  Q    Q    Q    Q       Q    Q    Q    Q       Q    Q    Q    Q     
------------0----3----|----------------------|------------7----5----|
--1----3--------------|--3---------0---------|------------5---------|
------------0---------|------------0----0----|--5---------5---------|
-------2--------------|-------0--------------|----------------------|
--3-------------------|----------------------|-------7--------------|
----------------------|--3-------------------|--5-------------------|


  Q    Q    Q    Q       Q    Q    Q    Q       Q    Q    Q     Q     
----------------------|--7-------------------|--5---------7----10----|
--7-------------------|------------0---------|------------0----------|
----------------------|-------0---------0----|-------0---------------|
------------4---------|----------------------|-----------------------|
-------6---------6----|--7-------------------|--6--------------------|
--7-------------------|----------------------|-----------------------|


   Q     Q    Q     Q        Q     Q    H           Q    Q    Q     Q     
--10----------8----------|-----------------------|--0----2----3----12----|
-------------------12----|--12----------8--------|-----------------------|
--------------9----------|--------------9--------|------------0----------|
--------10---------------|--------10-------------|-------2---------------|
---8---------------------|-----------------------|--0---------------0----|
-------------------------|---8-------------------|-----------------------|


   Q    Q    Q    Q       Q    Q    Q    Q       W                   
--11-------------------|--0-------------------|--0-----------------||
-------------7---------|------------0---------|--0-----------------||
-------------8---------|-------0---------0----|--0----------------*||
--------9---------9----|----------------------|-------------------*||
-----------------------|----------------------|--------------------||
---7-------------------|--0-------------------|--0-----------------||

3 comments on Alan and Cerl

Damn nice! Thank you! :3

5

Damn nice! Thank you! :3

CHECK PDF FILE for left hand fingerings

Please Check the attached .pdf file for left hand fingerings

Thanks a lot

I've been looking for a playable version of this song.