Login or Register to remove this ad. | Advertise Here

Violent Bravery (Blaze Union) Guitar Tab

Submitted: May 15, 2011 by Kiku (Last updated: Sep 10, 2011)

5
Average: 5 (1 vote)
Download | Listen
Game: Blaze Union
Composer(s): Shigeki Hayashi
Style: 2 or more instruments, Transcription

AutoScroll: Slow | Medium | Fast
Violent Bravery (Arabureba Isamashiku)
Blaze Union
Composed by Shigeki Hayashi
Tabbed by Kiku
2011-05-15

BPM: 187

You can play the lead guitar in standard tuning, just play all notes 1 fret
lower than what the tab says. I left it 1/2 step down just to be consistent
with the rhythm guitar.



                 Violent Bravery (Arabureba Isamashiku)                     


Lead Guitar (Tune down 1/2 step)

       Q.       Q.       Q          E  E  E  E  E  E   E  E   
D#||---------------------------||----------------------------|
A#||--15b------15b------15b----||----------------------------|
F#||---------------------------||*-----9--7------------------|
C#||---------------------------||*-----------9--8--7------7--|
G#||---------------------------||---7-----------------10-----|
D#||---------------------------||----------------------------|


  E   E   E  Q     Q    E      H.            E   E   
---------10--9-------------|------------------------|
------------------10-------|--12------------10------|
--9--12-----------------9--|--------------------12--|
---------------------------|------------------------|
---------------------------|------------------------|
---------------------------|------------------------|


   E   E   E   Q     Q     E      E   E   E   Q.        Q     
------------------------------|------------------------------|
----------10------------------|------------------------------|
--11--12------11--------------|--12--11--12--12br------11----|
--------------------12--------|------------------------------|
--------------------------12--|------------------------------|
------------------------------|------------------------------|


  E   E   E  Q     Q     E      H         E.   E.   E   
---------10--9----10----12--|------------15---14-------|
----------------------------|--12------------------15--|
--9--12---------------------|--------------------------|
----------------------------|--------------------------|
----------------------------|--------------------------|
----------------------------|--------------------------|


   Q.      Q.       Q        Q.        Q     Q     E      Q.      Q.      Q     
----------17b------17----|--14br----------------------|------------------------|
--17---------------------|------------15----10--------|--12------10------------|
-------------------------|------------------------11--|------------------12----|
-------------------------|----------------------------|------------------------|
-------------------------|----------------------------|------------------------|
-------------------------|----------------------------|------------------------|


   Q.      Q.      Q        Q.      Q.      Q        H          H         
------------------------|------------------10----|-----------------------|
------------------10----|--12------10------------|--12~--------10--------|
--11------12------------|------------------------|-----------------------|
------------------------|------------------------|-----------------------|
------------------------|------------------------|-----------------------|
------------------------|------------------------|-----------------------|


   E   E   E   Q     E   Q       H         E   E   E   E   
--------------10----12--------|---------------------------|
------------------------12----|--L--------12--10----------|
--12--11--12------------------|-------------------12--11--|
------------------------------|---------------------------|
------------------------------|---------------------------|
------------------------------|---------------------------|


   Q.     Q.      Q        Q.      Q.      Q        W                  
-----------------------|----------10------------|---------------------|
-----------------------|--10--------------10----|--12~----------------|
--12------9------12----|------------------------|---------------------|
-----------------------|------------------------|---------------------|
-----------------------|------------------------|---------------------|
-----------------------|------------------------|---------------------|


  H.           Q        Q.      E   H            Q.      Q.      Q     
--------------------|----------12---L--------|----------14------------|
--L-----------------|--10--------------------|--12--------------12----|
--------------------|------------------------|------------------------|
--------------------|------------------------|------------------------|
--------------------|------------------------|------------------------|
--------------------|------------------------|------------------------|


   Q.      Q.      Q        H         H            Q.      E   H         
--15------14------12----|----------------------|----------15---L--------|
------------------------|--15------------------|--12--------------------|
------------------------|------------14--------|------------------------|
------------------------|----------------------|------------------------|
------------------------|----------------------|------------------------|
------------------------|----------------------|------------------------|


   Q.      Q.      Q        H         H             W                    
----------17------14----|--15--------17b--------|--17~-----------------||
--15--------------------|-----------------------|----------------------||
------------------------|-----------------------|---------------------*||
------------------------|-----------------------|---------------------*||
------------------------|-----------------------|----------------------||
------------------------|-----------------------|----------------------||




Rhythm Guitar (Tune down 1/2 step)

      Q.     Q.     Q         E  E  E  E  E  E  E  E   
D#||---------------------||---------------------------|
A#||--3------------------||---------------------------|
F#||--2------2-----------||*--------------------------|
C#||--0------2------2----||*-----2--0-----------------|
G#||---------0------2----||------------2--1--0-----0--|
D#||----------------0----||---0-----------------3-----|


       PM PM PM PM PM PM    PM    PM      PM              PM PM PM PM PM PM  
  Q    E  E  E  E  E  E     E  E  E  Q    E  Q       Q    E  E  E  E  E  E   
-------------------------|------------------------|-------------------------|
-------------------------|------------------------|-------------------------|
-------------------------|------------------------|-------------------------|
--2----------------------|-----5-----7-------5----|--2----------------------|
--2----------------------|-----5-----7-------5----|--2----------------------|
--0----0--0--0--0--0--0--|--0-----0-------0-------|--0----0--0--0--0--0--0--|


  PM            PM              PM PM PM PM PM PM    PM    PM      PM       
  E  E  E  Q    E  Q       Q    E  E  E  E  E  E     E  E  E  Q    E  Q     
------------------------|-------------------------|------------------------|
------------------------|-------------------------|------------------------|
------------------------|-------------------------|------------------------|
-------------------5----|--2----------------------|-----5-----7-------5----|
-----5--4----------5----|--2----------------------|-----5-----7-------5----|
--0--------5----0--3----|--0----0--0--0--0--0--0--|--0-----0-------0-------|


       PM PM PM PM PM PM                                          
  Q    E  E  E  E  E  E     W                   W                 
-------------------------|-------------------|-------------------|
-------------------------|-------------------|-------------------|
-------------------------|--7----------------|--5----------------|
--2----------------------|--7----------------|--5----------------|
--2----------------------|--5----------------|--3----------------|
--0----0--0--0--0--0--0--|-------------------|-------------------|


  H        Q    Q       W                   H        H         
---------------------|-------------------|--------------------|
---------------------|-------------------|--------------------|
--L--------5----4----|--2----------------|--7--------8--------|
--L--------5----4----|--2----------------|--7--------9--------|
--L--------3----2----|--0----------------|--5--------6--------|
---------------------|-------------------|--------------------|


  W                   W                   H.           Q     
-------------------|-------------------|--------------------|
-------------------|-------------------|--------------------|
--9----------------|--7----------------|--5------------4----|
--9----------------|--7----------------|--5------------4----|
--7----------------|--5----------------|--3------------2----|
-------------------|-------------------|--------------------|


                             PM PM PM PM PM PM    PM    PM      PM       
  Q.     Q.     Q       Q    E  E  E  E  E  E     E  E  E  Q    E  Q     
---------------------|-------------------------|------------------------|
---------3-----------|-------------------------|------------------------|
--2------2------2----|-------------------------|------------------------|
--2------0------2----|--2----------------------|-----5-----7-------5----|
--0-------------0----|--2----------------------|-----5-----7-------5----|
---------------------|--0----0--0--0--0--0--0--|--0-----0-------0-------|


     PM PM    PM PM    PM       PM PM    PM PM    PM  
  E  E  E  E  E  E  E  E     E  E  E  E  E  E  E  E   
--------------------------|--------------------------|
--------------------------|--------------------------|
--2--------2--------2-----|--4--------4--------4-----|
--2--------2--------2-----|--4--------4--------4-----|
--0--0--0-----0--0-----0--|--2--2--2-----2--2-----2--|
--------------------------|--------------------------|


     PM PM    PM PM    PM       PM PM    PM PM            PM PM    PM PM    PM  
  E  E  E  E  E  E  E  E     E  E  E  E  E  E  Q       E  E  E  E  E  E  E  E   
--------------------------|-------------------------|--------------------------|
--------------------------|-------------------------|--------------------------|
--5--------5--------5-----|--7--------7--------7----|--2--------2--------2-----|
--5--------5--------5-----|--7--------7--------7----|--2--------2--------2-----|
--3--3--3-----3--3-----3--|--5--5--5-----5--5--5----|--0--0--0-----0--0-----0--|
--------------------------|-------------------------|--------------------------|


     PM PM    PM PM    PM       PM PM    PM PM    PM  
  E  E  E  E  E  E  E  E     E  E  E  E  E  E  E  E   
--------------------------|--------------------------|
--------------------------|--------------------------|
--4--------4--------4-----|--5--------5--------5-----|
--4--------4--------4-----|--5--------5--------5-----|
--2--2--2-----2--2-----2--|--3--3--3-----3--3-----3--|
--------------------------|--------------------------|


     PM PM    PM PM    PM    
  E  E  E  E  E  E  E  E     
---------------------------||
---------------------------||
--7--------7--------7-----*||
--------------------------*||
-----5--5-----5--5-----5---||
---------------------------||




Duration Legend
---------------
W - whole
H - half
Q - quarter
E - 8th
S - 16th
T - 32nd
X - 64th
. - note dotted
|-n-|  - n-tuplets


Tablature Legend
----------------
L - tied note
x - dead note
g - grace note
(n) - ghost note
> - accentuded note
NH - natural harmonic
AH - artificial harmonic
TH - tapped harmonic
SH - semi harmonic
PH - pitch harmonic
h - hammer on
p - pull off
b - bend
br - bendRelease
pb - preBend
pbr - preBendRelease
brb - bendReleaseBend
\n/ - tremolo bar dip
\n - tremolo bar dive
-/n - tremolo bar Release up
/n\ - tremolo bar inverted dip
/n - tremolo bar return
-\n - tremolo bar Release down
S - shift slide
s - legato slide
/ -  slide into from below or out of upwards
\ -  slide into from above or out of downwards
~ - vibrato
W - wide vibrato
tr - trill
TP - tremolo picking
T - tapping
S - slap
P - pop
< - fade in
^ - brush up
v - brush down