Login or Register to remove this ad. | Advertise Here

Cohen's Masterpiece (Bioshock) Guitar Tab

Submitted: Feb 05, 2011 by A Dead Fly

5
Average: 5 (1 vote)
Download | Listen
Game: Bioshock
Composer(s): Garry Schyman
Style: 2 or more instruments, Arrangement, Fingerstyle

This song is also called Cohen's Scherzo No. 7

AutoScroll: Slow | Medium | Fast
Artist: Garry Schyman
Album: Bioshock
Song: Cohen's Masterpiece (aka Cohen's Scherzo No. 7)
Tabbed By: A Dead Fly

I have arranged the song for two guitars.

The Lead Guitar (guitar one) is difficult, I suggest fingerpicking
on a clean electric guitar.

The Rythym Guitar (guitar two) is not as difficult and I like to play it
with distortion to give it more of a dissonant sound to fit the song.

Both guitars have standard tuning.

0:00 - 0:11

Guitar One

e|-----------------1--2--------1-----------------------1--2--------6-----4-|
B|--------------2--------3--------2-----------------2--------3-------------|
G|-----------3--------------3--------3-----------3--------------3-----3----|
D|--------3-----------------------------------3----------------------------|
A|-----1-----------------------------------1-------------------------------|
E|--1-----------------------------------1----------------------------------|

e|-----------------1--2--------1-----------------------1--1--------0-------|
B|--------------2--------3--------2-----------------2--------2--------2----|
G|-----------3--------------3--------3-----------3--------------3--------3-|
D|--------3-----------------------------------3----------------------------|
A|-----1-----------------------------------1-------------------------------|
E|--1-----------------------------------1----------------------------------|

e|-----------------1--2--------1-----------------1-----------------------5-|
B|--------------2--------3--------2-----------1-----1-----1-----------6----|
G|-----------3--------------3--------3-----2-----------2-----2-----5-------|
D|--------3-----------------------------3-----------------------3----------|
A|-----1-------------------------------------------------------------------|
E|--1----------------------------------------------------------------------|

Guitar Two (Silent)

0:11 - 0:29

Guitar One

e|--6-----------------4--------4--------2----------------------------------|
B|-----6-----------6-----2--------2--------2-----------2--5--------5-------|
G|--------3-----3-----------1--------1--------3-----3--------3--------3----|
D|-----------3-----------------------------------4--------------2--------2-|
A|-------------------------------------------------------------------------|
E|-------------------------------------------------------------------------|

e|--------------------------------------4--------4-------------------------|
B|--1-----------------4--------4-----------0--------0-----2----------------|
G|-----3-----------3-----2--------2-----------4--------4-----3-----------3-|
D|--------4-----4-----------1--------1--------------------------3-----3----|
A|-----------1-----------------------------------------------------1-------|
E|-------------------------------------------------------------------------|

e|--4--------4--------2----------------------------------------------------|
B|-----2--------2--------2-----------2--------------------2----------------|
G|--------3--------3--------3-----3-----5--------5-----------3-----------3-|
D|-----------------------------4-----------4--------4-----------4-----4----|
A|--------------------------------------------3--------3-----------4-------|
E|-------------------------------------------------------------------------|

e|-------------------------------------------------------------------------|
B|--1-----------------4-----------------------------4-----4----------------|
G|-----2-----------2-----3-----------3-----------3--------5----------------|
D|--------3-----3-----------2-----2-----------2-----------3----------------|
A|-----------3-----------------1-----------1-------------------------------|
E|--------------------------------------0----------------------------------|

e|---------------------------1///////////////13v---------|
B|-------------------------1-----------------------------|
G|-----------------------2-------------------------------|
D|---------------------3---------------------------------|
A|--------0-----3----------------------------------------|
E|--1----------------------------------------------------|

Guitar Two

e|--1-----------------2----------------------------------------------------|
B|--2-----------2-----2----------------------------------------------------|
G|--3-----------3-----3-----------3-----3-----------3-----3-----------3----|
D|--3-----3-----------4-----------4-----4-----------4-----4-----------4----|
A|--1-----1-----------4-----4-----------1-----1-----------1-----1----------|
E|--------------------2-----2-----------2-----2-----------2-----2----------|

e|--3-----------------------------------------------------6----------------|
B|--5-----------------------------------4-----------------6-----------6----|
G|--3-----------3-----------------------4-----------4-----6-----------6----|
D|--5-----------5-----9-----------9-----4-----------4-----8-----------8----|
A|--3-----3-----------9-----------9-----6-----6-----------8-----8----------|
E|--3-----3-----------6-----6-----------4-----4-----------6-----6----------|

e|--------------------------------------2----------------------------------|
B|--9-----------9-----6-----------------2-----------2-----4----------------|
G|--6-----------6-----6-----------6-----3-----------3-----3-----------3----|
D|--8-----------8-----8-----------8-----4-----------4-----2-----------2----|
A|--8-----8-----------8-----8-----------4-----4-----------4-----4----------|
E|--6-----6-----------9-----9-----------2-----2-----------2-----2----------|

e|--1-----------------2----------------------------------------------------|
B|--1-----------1-----2-----------2-----4-----------4----------------------|
G|--2-----------2-----3-----------3-----3-----------3-----2----------------|
D|--3-----------3-----2-----------2-----2-----------2-----3----------------|
A|--3-----3-----------4-----4-----------1-----1-----------3----------------|
E|--1-----1-----------2-----2-----------0-----0-----------1----------------|

Hold that last chord only part way though the next (final bar) of this
section, and then be silent until the next part

0:29 - 0:59

Guitar One

e|----------------13-18----------------------------16----------------18----|
B|-------------14-------14----------------------14----14----------14-------|
G|----------15-------------13----------------13----------------13----------|
D|-------15-------------------15----------11----------------11-------------|
A|----13-------------------------13----11----------------11----------------|
E|-13-------------------------------13-------------------------------------|

e|-------------------14----------------------------------13----------------|
B|-------------14-------14-------------------------14-------14-------------|
G|----------15----15-------15-------------------15----15-------15----------|
D|-------16-------------------16-------------15-------------------15-------|
A|----16-------------------------16-------13-------------------------13----|
E|-14-------------------------------14-13----------------------------------|

e|-------------------------------------------------------------------------|
B|----------17----------------17-------13----------------13----------------|
G|-------15----15----------15----15-------15----------15----15-------------|
D|----14----------14----14----------14-------15----15----------15----15----|
A|-13----------------13-------------------------15----------------15-------|
E|-------------------------------------------------------------------------|

e|----------17----------------17-------------------------13----------------|
B|-------16----16----------16----16----13-------------------13----------13-|
G|----14----------14----14----------------13----------13-------13----13----|
D|-13----------------13----------------------15----15-------------15-------|
A|----------------------------------------------15-------------------------|
E|-------------------------------------------------------------------------|

e|----------18----------------18----------------16----------------16-------|
B|-------14----14----------14----14----------14----14----------14----------|
G|----15----------15----15----------15----15----------15----15-------------|
D|-------------------------------------16----------------16----------------|
A|-16----------------16----------------------------------------------------|
E|-------------------------------------------------------------------------|

e|-------------------14----------------------------------------------------|
B|-------------14-------14----------------------19----------------19-------|
G|----------15----15-------15----------------17----17----------17----17----|
D|-------16-------------------16----------16----------16----16----------16-|
A|----16-------------------------16----15----------------15----------------|
E|-14-------------------------------14-------------------------------------|

e|-------------------14----------------------------------13----------------|
B|-------------14-------14-------------------------13-------13-------------|
G|----------15----15-------15-------------------14----14-------14----------|
D|-------16-------------------16-------------15-------------------15-------|
A|----16-------------------------16-------15-------------------------15----|
E|-14-------------------------------14-13-------------------------------13-|

e|-------------------------------------|
B|-------------------------------------|
G|----------15----------------15-------|
D|-------14----14----------14----14----|
A|----13----------13----13-------------|
E|-12----------------12----------------|

e|-13----------------------------------------------------------------------|
B|-------14----13----------------------------------------------------------|
G|-------------------15----------------------------------------------------|
D|-------------------------16----15----------------------------------------|
A|-------------------------------------16----15----13----------------------|
E|-------------------------------------------------------14----13-----9----|

e|-------------------------------------------------------------------------|
B|-------------------------------------------------------------------------|
G|-------------------------------------------------------------------------|
D|-------------------------------------------------------------------------|
A|-------------------------------------------------------------------------|
E|--8-----6-----8-----6-----2-----6-----1----------------------------------|

Guitar Two

e|-------------------------------------------------------------------------|
B|--------------------2-----------------------------------2----------------|
G|--------------3-----------3-----------------------3-----------3----------|
D|--------3-----------------------3-----------4-----------------------4----|
A|--1-----------------------------------4----------------------------------|
E|--1-----------------------------------2----------------------------------|

e|-------------------------------------------------------------------------|
B|--------------------------------------------------------1----------------|
G|--5-----------------5-----------------------------2-----------2----------|
D|--5-----5-----------------3-----------------3-----------------------3----|
A|--3-----------3-----------------3-----3----------------------------------|
E|--------------------------------------1----------------------------------|

e|-------------------------------------------------------------------------|
B|-------------------------------------------------------------------------|
G|--------------------3-----------------------------------2----------------|
D|--------------2-----------2-----------------------3-----------3----------|
A|--------1-----------------------1-----------0-----------------------0----|
E|--0-----------------------------------1----------------------------------|

e|-------------------------------------------------------------------------|
B|-------------------------------------------------------------------------|
G|--2-----------------2-----------------------------------1----------------|
D|--1-----1-----------------1-----------------------3-----------3----------|
A|--0-----------0-----------------0-----------1-----------------------1----|
E|--------------------------------------1----------------------------------|

e|-------------------------------------------------------------------------|
B|-------------------------------------------------------------------------|
G|--------------------3-----------------------------------3----------------|
D|--------------3-----------3-----------------------2-----------2----------|
A|--------4-----------------------4-----------1-----------------------1----|
E|--1-----------------------------------0----------------------------------|

e|--------------------2-----------------------------------1----------------|
B|--------------2-----------2-----------------------2-----------2----------|
G|--------3-----------------------3-----------3-----------------------3----|
D|--4-----------------------------------3----------------------------------|
A|--4-----------------------------------1----------------------------------|
E|--2----------------------------------------------------------------------|

e|--------------------------------------------------------1----------------|
B|--------------------------------------------------1-----------1----------|
G|--------------------3-----------------------2-----------------------2----|
D|--------------3-----------3-----------3----------------------------------|
A|--------4-----------------------4-----3----------------------------------|
E|--2-----------------------------------1----------------------------------|

e|-------------------------------------|
B|-------------------------------------|
G|--------------------5----------------|
D|--------------2-----------2----------|
A|--------3-----------------------3----|
E|--0----------------------------------|

e|----------------|
B|----------------|
G|--2-------------| Hold this chord for one bar then be silent the last
D|--3-------------| bar of this time interval
A|--3-------------|
E|--1-------------|

0:59 - 1:14

Guitar One and Guitar two:

Just repeat the part from 0:11 - 0:29 for both guitars,
the only difference is for guitar one, the chord you end on changes to:

e|--1-------------|
B|--1-------------|
G|--2-------------|
D|--3-------------| 
A|--3-------------|
E|--1-------------|

and you just hold it for a few seconds instead of playing that fill at the
end

1:14 - 1:38

Guitar One

e|-----------1--------2--------1-----------------1--------2--------6-----4-|
B|--------2--------2--------2--------2--------2--------2--------2----------|
G|-----3--------3--------3--------3--------3--------3--------3--------3----|
D|--3-----------------------------------3----------------------------------|
A|-------------------------------------------------------------------------|
E|-------------------------------------------------------------------------|

e|-----------1--------2--------1-----------------1--------0----------------|
B|--------2--------2--------2--------2--------2--------2--------1h-4-------|
G|-----3--------3--------3--------3--------3--------3--------3--------3----|
D|--3-----------------------------------3----------------------------------|
A|-------------------------------------------------------------------------|
E|-------------------------------------------------------------------------|

e|-----------1--------2--------1-----------------1--------2--------6-----4-|
B|--------2--------2--------2--------2--------2--------2--------2----------|
G|-----3--------3--------3--------3--------3--------3--------3--------3----|
D|--3-----------------------------------3----------------------------------|
A|-------------------------------------------------------------------------|
E|-------------------------------------------------------------------------|

e|--------------------3-----------------------------------2----------------|
B|--------------5--------5--------------------------4--------4-------------|
G|-----------5-----5--------5--------------------4-----4--------4----------|
D|--------5--------------------5--------------4--------------------4-------|
A|-----3--------------------------5--------2--------------------------2----|
E|--3--------------------------------3--2--------------------------------2-|

e|-----------1--------2--------1-----------------1--------2--------1-------|
B|--------2--------2--------2--------2--------2--------2--------2--------2-|
G|-----3--------3--------3--------3--------3--------3--------3--------3----|
D|--3-----------------------------------3----------------------------------|
A|-------------------------------------------------------------------------|
E|-------------------------------------------------------------------------|

e|-----------------2-----------------2-----------------1-----------------1-|
B|--------------2-----------------2-----------------1-----------------1----|
G|-----------3-----------------3-----------------2-----------------2-------|
D|--------4-----------------4-----------------3-----------------3----------|
A|-----4-----------------4-----------------3-----------------3-------------|
E|--2-----------------2-----------------1-----------------1----------------|

e|--------------------------------------------------------------0-----5----|
B|--------------------------------------------------1-----2----------------|
G|--------------------------------------2-----3----------------------------|
D|--------------------3-----2-----3----------------------------------------|
A|--1-----3-----4----------------------------------------------------------|
E|-------------------------------------------------------------------------|

Guitar Two (Add Vibrato to every note here and hold it until next note)

Silent for the first two bars then:

e|--------------5-|
B|----------------|
G|----------------| Hit this note as a precursor
D|----------------|
A|----------------|
E|----------------|

e|--6-----------6------4-----------4------1-----------1-----2----------2---|
B|-------------------------------------------------------------------------|
G|-------------------------------------------------------------------------|
D|-------------------------------------------------------------------------|
A|-------------------------------------------------------------------------|
E|-------------------------------------------------------------------------|

e|---------------------------------------------------------------------7---|
B|--5-----------5------1-----------1------4-----------4--------------------|
G|-----------------------------------------------------------4-------------|
D|-------------------------------------------------------------------------|
A|-------------------------------------------------------------------------|
E|-------------------------------------------------------------------------|

e|--7-----------7------9-----------9------8-----------8------5---------5---|
B|-------------------------------------------------------------------------|
G|-------------------------------------------------------------------------|
D|-------------------------------------------------------------------------|
A|-------------------------------------------------------------------------|
E|-------------------------------------------------------------------------|

e|--6-----------1------2------------------------------8---------------12///|
B|---------------------------------4------5------------------7-------------|
G|-------------------------------------------------------------------------|
D|-------------------------------------------------------------------------|
A|-------------------------------------------------------------------------|
E|-------------------------------------------------------------------------|

e|//18------------|
B|----------------|
G|----------------| Hold this note until the next time interval
D|----------------|
A|----------------|
E|----------------|

1:38 - 1:56

Guitar One

e|-11-----------------9--------9--------7-----------------5--------5-------|
B|----11----------11-----7--------7--------4-----------4-----4--------4----|
G|--------8-----8-----------6--------6--------4-----4-----------2--------2-|
D|-----------8-----------------------------------4-------------------------|
A|-------------------------------------------------------------------------|
E|-------------------------------------------------------------------------|

e|--1-----------------4--------4--------0-----------------6--------6-------|
B|-----1-----------1-----3--------3--------2-----------2-----7--------7----|
G|--------2-----2-----------1--------1--------1-----1-----------8--------8-|
D|-----------3-----------------------------------2-------------------------|
A|-------------------------------------------------------------------------|
E|-------------------------------------------------------------------------|

e|--9--------9--------6--------6--------8--------8--------5--------5-------|
B|-----7--------7--------7--------7--------7--------7--------7--------7----|
G|--------8--------8--------8--------8--------5--------5--------8--------8-|
D|-------------------------------------------------------------------------|
A|-------------------------------------------------------------------------|
E|-------------------------------------------------------------------------|

e|--6-----------------------------------------------------6----------------|
B|-----6-----------6--4--------4-----------------4--------6----------------|
G|--------5-----5--------2--------2-----------2-----2-----3----------------|
D|-----------3--------------1--------1-----1--------------3----------------|
A|--------------------------------------0----------------------------------|
E|-------------------------------------------------------------------------|

e|------------------------1/////////////////18v----------|
B|----------------------3--------------------------------|
G|--------------------3----------------------------------|
D|--------0-----3----------------------------------------|
A|--1----------------------------------------------------|
E|-------------------------------------------------------|

Guitar Two

e|-------------------------------------------------------------------------|
B|--------------------------------------4-----------4-----2-----------2----|
G|--8-----------8-----------------6-----4-----------4-----2-----------2----|
D|--8-----------8-----4-----------4-----4-----4-----------2-----2----------|
A|--6-----6-----------4-----4-----------2-----2-----------0-----0----------|
E|--6-----6-----------2-----2-----------2-----2----------------------------|

e|-------------------------------------------------------------------------|
B|--------------------------------------------------------7----------------|
G|--2-----------2-----------------8-----------------------8-----------8----|
D|--3-----------3-----6-----------6-----2-----------2-----8-----------8----|
A|--3-----3-----------6-----6-----------2-----2-----------6-----6----------|
E|--1-----1-----------4-----4-----------0-----0----------------------------|

e|-------------------------------------------------------------------------|
B|--7-----------------------------------------------------4-----------4----|
G|--8-----------8-----8-----------8-----5-----------5-----5-----------5----|
D|--8-----------8-----8-----------8-----4-----------4-----6-----6----------|
A|--6-----6-----------6-----6-----------3-----3-----------6-----6----------|
E|--------------------6-----6-----------2-----2-----------4-----4----------|

e|-------------------------------------------------------------------------|
B|-------------------------------------------------------------------------|
G|--3-----------3-----8-----------8-----8-----------8-----3----------------|
D|--3-----------3-----7-----------7-----7-----------7-----3----------------|
A|--1-----1-----------6-----6-----------6-----6-----------1----------------|
E|--1-----1-----------5-----5-----------5-----5-----------1----------------|

Hold the last chord for a few seconds then be quiet through the rest of the
time interval

1:56 - 2:27

Guitar One

e|----------18----------------18----------------14----------------14-------|
B|-------16----16----------16----16----------14----14----------14----14----|
G|----15----------15----15----------15----11----------11----11-------------|
D|-13----------------13----------------11----------------11----------------|
A|-------------------------------------------------------------------------|
E|-------------------------------------------------------------------------|

e|-------------------15----------------------------------------------------|
B|----------16----------16-------------------------------------------------|
G|-------17----17----------17----17-------------15----------------15-------|
D|----17----------17----------17-------------16----16----------16----16----|
A|-15-------------------------------------12----------12----12-------------|
E|-------------------------------------13----------------13----------------|

e|-------------------------------------13----------------13----------------|
B|----------16----------------16----------16----------16----16-------------|
G|-------14----14----------14----14----------14----14----------14----14----|
D|----13----------13----13----------------------15----------------15-------|
A|-12----------------12----------------------------------------------------|
E|-------------------------------------------------------------------------|

e|-------------------------------------------------------12----------------|
B|----------14----------------14----------------14----------14----------14-|
G|-------13----13----------13----13----------14----14----------14----14----|
D|----12----------12----12----------------14----------14----------14-------|
A|-11----------------11----------------12----------------------------------|
E|-------------------------------------------------------------------------|

e|-------------------14-------------------------14----------------14-------|
B|-------------16-------16-------------------14----14----------14----14----|
G|----------16----16-------16-------------11----------11----11-------------|
D|-------16-------------------16-------11----------------11----------------|
A|----14-------------------------14----------------------------------------|
E|-14----------------------------------------------------------------------|

e|-14----------------14----------------13----------------13----------------|
B|----16----------------16----------------13----------13----13-------------|
G|-------16----------------16----------------11----11----------11----11----|
D|----------16----------------16----------------11----------------11-------|
A|-------------14----------------14----------------------------------------|
E|----------------14-------------------------------------------------------|

e|-14----------------14----------------13----------------13----------------|
B|----16----------------16----------------11----------11----11-------------|
G|-------16----------------16----------------10----10----------10----10----|
D|----------16----------------16-----------------8-----------------8-------|
A|-------------14----------------14----------------------------------------|
E|----------------14-------------------------------------------------------|

e|-11----------------11----------------18----------------------------------|
B|----10----------10----10-------------------16----------------------------|
G|--------8-----8-----------8-----8----------------15----------------------|
D|-----------7-----------------7-------------------------16----15----13----|
A|-------------------------------------------------------------------------|
E|-------------------------------------------------------------------------|

e|-------------------------------------------------------------------------|
B|-------------------------------------------------------------------------|
G|-------------------------------------------------------------------------|
D|-------------------------------------------------------13----15----16----|
A|-15----13----------------------------------13----14----------------------|
E|-------------14----13----11----13----14----------------------------------|

e|----------------|
B|----------------|
G|--15------------| Hold this note a whole bar
D|----------------|
A|----------------|
E|----------------|

Guitar Two

e|-------------------------------------------------------------------------|
B|--------------------7----------------------------------------------------|
G|--------------8-----------8------------------------------6---------------|
D|--------8-----------------------8------------------4-----------4---------|
A|--6-----------------------------------------4------------------------4---|
E|--6-----------------------------------2----------------------------------|

e|--------------------3----------------------------------------------------|
B|--------------4-----------4------------------------------1---------------|
G|--------5-----------------------5------------------2-----------2---------|
D|--5-----------------------------------------3------------------------3---|
A|--3-----------------------------------3----------------------------------|
E|--------------------------------------1----------------------------------|

e|-------------------------------------------------------------------------|
B|--------------------4------------------------------------1---------------|
G|--------------2-----------2------------------------2-----------2---------|
D|--------1-----------------------1-----------3------------------------3---|
A|--0-----------------------------------3----------------------------------|
E|--------------------------------------1----------------------------------|

e|-------------------------------------------------------------------------|
B|--------------------7------------------------------------4---------------|
G|--------------8-----------8------------------------5-----------5---------|
D|--------8-----------------------8-----------6------------------------6---|
A|--6-----------------------------------6----------------------------------|
E|--6-----------------------------------4----------------------------------|

e|-------------------------------------------------------------------------|
B|--------------------7------------------------------------4---------------|
G|--------------8-----------8------------------------5-----------5---------|
D|--------8-----------------------8-----------6------------------------6---|
A|--6-----------------------------------6----------------------------------|
E|--6-----------------------------------4----------------------------------|

e|-------------------------------------------------------------------------|
B|---------------------------------------------------------4---------------|
G|--------------------6------------------------------5-----------5---------|
D|--------------4-----------4-----------------6------------------------6---|
A|--------4-----------------------4-----6----------------------------------|
E|--2-----------------------------------4----------------------------------|

e|-------------------------------------------------------------------------|
B|-------------------------------------------------------------------------|
G|--------------------5------------------------------------2---------------|
D|--------------4-----------4------------------------3-----------3---------|
A|--------3-----------------------3-----------3------------------------3---|
E|--2-----------------------------------1----------------------------------|

e|-------------------------------------------------------------------------|
B|-------------------------------------------------------------------------|
G|--------------------2-----------------3----------------------------------|
D|--------------3-----------3-----------3----------------------------------|
A|--------0-----------------------0-----1----------------------------------|
E|--1----------------------------------------------------------------------|

Hold that last chord for a few seconds more in the following bar

2:27 - End

Guitar One

e|-----------6--------7--------6-----------------6--------7-------11-----9-|
B|--------7--------7--------7--------7--------7--------7--------7----------|
G|-----8--------8--------8--------8--------8--------8--------8-------------|
D|--8-----------------------------------8----------------------------------|
A|-------------------------------------------------------------------------|
E|-------------------------------------------------------------------------|

e|-----------6--------7--------6-----------------6--------5-----4----------|
B|--------7--------7--------7--------7--------7--------7-----7-----7-------|
G|-----8--------8--------8--------8--------8--------8-----------------7----|
D|--8-----------------------------------8----------------------------------|
A|-------------------------------------------------------------------------|
E|-------------------------------------------------------------------------|

e|-----------6--------7--------6-----------------6--------7--------6-------|
B|--------7--------7--------7--------7--------7--------7--------7--------7-|
G|-----8--------8--------8--------8--------8--------8--------8--------8----|
D|--8-----------------------------------8----------------------------------|
A|-------------------------------------------------------------------------|
E|-------------------------------------------------------------------------|

e|--------------------8-----------------------------------7----------------|
B|-------------10-------10--------------------------9--------9-------------|
G|----------10----10-------10--------------------9-----9--------9----------|
D|-------10-------------------10--------------9--------------------9-------|
A|-----8--------------------------8--------7--------------------------7----|
E|--8--------------------------------8--7--------------------------------7-|

e|-----------6--------7--------6-----------------6--------7--------6-------|
B|--------7--------7--------7--------7--------7--------7--------7--------7-|
G|-----8--------8--------8--------8--------8--------8--------8--------8----|
D|--8-----------------------------------8----------------------------------|
A|-------------------------------------------------------------------------|
E|-------------------------------------------------------------------------|

e|-----------------2-----------------2-----------------1-----------------1-|
B|--------------4-----------------4-----------------3-----------------3----|
G|-----------4-----------------4-----------------3-----------------3-------|
D|--------4-----------------4-----------------3-----------------3----------|
A|-----2-----------------2-----------------1-----------------1-------------|
E|--2-----------------2-----------------1-----------------1----------------|

e|--------------------------------------------------1-----2-----5-----6----|
B|--------------------------------------3-----4----------------------------|
G|--------------------3-----2-----3----------------------------------------|
D|--1-----3-----4----------------------------------------------------------|
A|-------------------------------------------------------------------------|
E|-------------------------------------------------------------------------|

e|--11------------|
B|--11------------|
G|---8------------|
D|---8------------|
A|----------------|
E|----------------|

Guitar Two (add Vibrato to every note except those of the last chord)

Silent for the first two bars then:

e|-------------10-|
B|----------------|
G|----------------| Hit this note as a precursor
D|----------------|
A|----------------|
E|----------------|

e|-11----------11------9-----------9------6-----------6-----8----------8---|
B|-------------------------------------------------------------------------|
G|-------------------------------------------------------------------------|
D|-------------------------------------------------------------------------|
A|-------------------------------------------------------------------------|
E|-------------------------------------------------------------------------|

e|--5-----------5------1-----------1------4-----------4---------------11---|
B|----------------------------------------------------------5--------------|
G|-------------------------------------------------------------------------|
D|-------------------------------------------------------------------------|
A|-------------------------------------------------------------------------|
E|-------------------------------------------------------------------------|

e|-11----------11-----14----------14-----13----------13----10---------10---|
B|-------------------------------------------------------------------------|
G|-------------------------------------------------------------------------|
D|-------------------------------------------------------------------------|
A|-------------------------------------------------------------------------|
E|-------------------------------------------------------------------------|

e|-11-----------6------7-----------4------5----------13----10---------17---|
B|-------------------------------------------------------------------------|
G|-------------------------------------------------------------------------|
D|-------------------------------------------------------------------------|
A|-------------------------------------------------------------------------|
E|-------------------------------------------------------------------------|

e|-------------------------------------------------------------------------|
B|-16----------------------------------------------------------------------|
G|-------------------------------------------------------------------------|
D|-------------------------------------------------------------------------|
A|-------------------------------------------------------------------------|
E|-------------------------------------------------------------------------|

e|----------------|
B|----------------|
G|---8------------|
D|---8------------|
A|---6------------|
E|----------------|

da da da da da DA DA... DA PRESTO PRESTO! NO! NO!!!
Come down now little moth...

Email me at azlizard13@yahoo.com
Please give me credit if you use this tab for a video

4 comments on Cohen's Masterpiece

Really nice job arranging

Really nice job arranging this! I just hope my guitar doesn't explode.

Thanks!

Thanks man, I'm not at all good at playing piano so there were some parts that didn't quite come out as good on guitar as I hoped they would, but overall I was pleased with it. Plus since it sounds so crazy you don't have to have every note perfect ;)

Yeah, the piano version is

Yeah, the piano version is complicated. Schyman has sheet music for this on his site, but I gave up after the first couple measures XD

Awesome. I don't usually look

5

Awesome. I don't usually look at arrangements for multiple instruments but this is both challenging and interesting. Nice job.