Login or Register to remove this ad. | Advertise Here

Out of the Airlock (Bioshock 2) Guitar Tab

Submitted: Oct 31, 2010 by A Dead Fly

0
Download | Listen
Game: Bioshock 2
Composer(s): Garry Schyman
Style: 2 or more instruments, Pinch harmonics, Transcription

AutoScroll: Slow | Medium | Fast
Artist: Garry Schyman
Album: Sounds from the Lighthouse (Bioshock 2 Soundtrack)
Song: Out of the Airlock
Tabbed by: A Dead Fly

I made it to be played by two electic guitars, one clean that
plays the harp/ bells, and one that is distorted to play the lead
cello and violin parts of the song. Both standard tuning.

Clean Electric guitar

Intro

e|------3---------|------4---------|------3---------|-7--------------|
B|-----4----------|-----4----------|-----4----------|--4-------------|
G|----5-----------|----4-----------|----5-----------|---4------------|
D|---5------------|---6------------|---5------------|----6-----------|
A|--3-------------|--6-------------|--3-------------|-----6----------|
E|-3--------------|-4--------------|-3--------------|------4---------|

0:12 - 0:57

e|---------------3|---------------4|---------------3|---------------4|
B|-------------4--|-------------4--|-------------4--|-------------4--|
G|----------5-----|----------4-----|----------5-----|----------4-----|
D|-------5--------|-------6--------|-------5--------|-------6--------|
A|----3-----------|----6-----------|----3-----------|----6-----------|
E|-3--------------|-4--------------|-3--------------|-4--------------|

e|---------------3|---------------4|---------------3|---------------7|
B|-------------4--|-------------4--|-------------4--|-------------4--|
G|----------5-----|----------4-----|----------5-----|----------4-----|
D|-------5--------|-------6--------|-------5--------|-------6--------|
A|----3-----------|----6-----------|----3-----------|----6-----------|
E|-3--------------|-4--------------|-3--------------|-4--------------|

Play all this 4 times

Then 0:58 - 1:26

e|----------------|-5--------------|----------------|-------5-10---13|
B|---------------2|----6-----------|---------------2|-3--6-----------|
G|-------------2--|-------7--6-----|-------------2--|-----------10---|
D|----------4-----|-------------7--|----------4-----|----------------|
A|----0--4--------|---------------5|----0--4--------|----------------|
E|-2--------------|----------------|-2--------------|----------------|

e|-17-14----------|--------------17|-21-17----------|----------------|
B|-------15-14----|---------14-15--|------19--------|----------------|
G|------------14--|------14--------|--------19-18---|----------------|
D|--------------16|-12-15----------|--------------19|-15-------------|
A|----------------|----------------|----------------|---17-16--------|
E|----------------|----------------|----------------|--------17-14---|

Play this twice then

e|----------------|-5--------------|----------------|-------5-10---13|
B|---------------2|----6-----------|---------------2|-3--6-----------|
G|-------------2--|-------7--6-----|-------------2--|-----------10---|
D|----------4-----|-------------7--|----------4-----|----------------|
A|----0--4--------|---------------5|----0--4--------|----------------|
E|-2--------------|----------------|-2--------------|----------------|

e|-17-14----------|----------------|
B|-------15-14----|----------------|
G|------------14--|----------------|
D|--------------16|----------------|
A|----------------|----------------|
E|----------------|-14-------------|

I know these arpeggios aren't perfect, but they sound close and they're
fun to play :)

Distorted Electric Guitar 
(add vibrato on EVERY note)

0:12 - 0:35

e|-7--------------|----------------|------------8---|------------7---|
B|----------------|----------------|----------------|----------------|
G|----------------|----------------|----------------|----------------|
D|----------------|----------------|----------------|----------------|
A|----------------|----------------|----------------|----------------|
E|----------------|----------------|----------------|----------------|

e|----------------|----------------|----------------|----------------|
B|-------5////////|//16------------|----------------|--12////////////|
G|----------------|----------------|----------------|----------------|
D|----------------|----------------|----------------|----------------|
A|----------------|----------------|----------------|----------------|
E|----------------|----------------|----------------|----------------|

e|----------------|----------------|----------------|----------------|
B|//20------------|----------------|----------------|----------------|
G|----------------|----------------|--15------------|----------14----|
D|----------------|----------------|----------------|----------------|
A|----------------|----------------|----------------|----------------|
E|----------------|----------------|----------------|----------------|

e|----------------|----------------|----------------|--15*-----------|
B|----------------|----------------|----------------|----------------|
G|----------------|----------------|----------------|----------------|
D|----------------|----------------|--13------------|----------------|
A|----------------|----------------|----------------|----------------|
E|----------------|----------------|----------------|----------------|

0:35 - 0:57

e|----------------|----------------|----------------|----------------|
B|----------------|----------------|----------------|----------------|
G|----------------|----------------|----------------|----------------|
D|----------------|----------------|----------------|--9----8--------|
A|-6--------------|----------------|-6--------------|----------------|
E|----------------|----------------|----------------|----------------|

e|----------------|----------------|----------------|----------------|
B|----------------|--10------------|----------------|-----------7----|
G|--8-----7-------|----------------|----------------|----------------|
D|----------------|----------------|----------------|----------------|
A|----------------|----------------|----------------|----------------|
E|----------------|----------------|----------------|----------------|

e|----------------|----------------|----------------|----------------|
B|-10---------7---|------------11--|----------------|----------------|
G|----------------|----------------|------------8---|--------7-------|
D|----------------|----------------|----------------|----------------|
A|----------------|----------------|----------------|----------------|
E|----------------|----------------|----------------|----------------|

e|----------------|----------------|----------------|----------------|
B|----------------|----------------|----------------|----------------|
G|----------------|----------------|----------------|----------------|
D|--8----------7--|----------------|----------------|----------------|
A|----------------|----------------|---9------------|----------------|
E|----------------|----------------|----------------|----------------|

1:03 - 1:26
Hybrid pick all of this

e|--9-------------|----------------|--5-------------|----------------|
B|----------------|----------------|----------------|----------------|
G|----------------|----------------|----------------|----------------|
D|----------------|----------------|----------------|----------------|
A|----------------|----------------|----------------|----------------|
E|--9-------------|----------------|--5-------------|----------------|

e|--9----10-------|----------------|--9-------------|----------------|
B|----------------|----------------|----------------|----------------|
G|----------------|----------------|----------------|----------------|
D|----------------|----------------|----------------|----------------|
A|----------------|----------------|----------------|----------------|
E|--9----10-------|----------------|--9-------------|----------------|

e|--13------------|----------------|--9-------------|--17------------|
B|----------------|----------------|----------------|----------------|
G|----------------|----------------|----------------|----------------|
D|----------------|----------------|----------------|----------------|
A|----------------|----------------|----------------|--12------------|
E|--13------------|----------------|--9-------------|----------------|

e|----------------|--16------------|----------------|--13------------|
B|----------------|----------------|----------------|----------------|
G|----------------|----------------|----------------|----------------|
D|----------------|----------------|----------------|----------------|
A|----------------|--11------------|----------------|----------------|
E|----------------|----------------|----------------|--13------------|

e|----------------|
B|--19------------|
G|----------------|
D|--16------------|
A|----------------|
E|--14------------|

That's it

Email me at azliard13@yahoo.com

Please give me credit if you use this for a video

/// Slide up
* Pinch harmonic