Login or Register to remove this ad. | Advertise Here

Eleanor's Lullaby (Bioshock 2) Guitar Tab

Submitted: Aug 29, 2010 by A Dead Fly (Last updated: Aug 29, 2010)

0
Download | Listen
Game: Bioshock 2
Composer(s): Garry Schyman
Style: 2 or more instruments, Alternate picking, Transcription

AutoScroll: Slow | Medium | Fast
Standard Tuning

Song: Eleanor's Lullaby
Artist: Garry Schyman
Album: Bioshock 2

Tabbed by Austin (A Dead Fly)

The song is written for 5 instruments (Violin, Cello, Bells,
Synthesizer, and Flute) with all of them transcribed for guitar.

Violin
0:01 - 0:39

e|-14---------10-|-12-------------|------------12-|-14-------------|
B|---------------|----------------|-15--15--------|----------------|
G|---------------|---------12-----|---------------|----------------|
D|---------------|----------------|---------------|----------------|
A|---------------|----------------|---------------|----------------|
E|---------------|----------------|---------------|----------------|

e|-14--15--17----|----------------|-17--14--------|----------------|
B|---------------|-14-------------|--------14--12-|----------------|
G|---------------|----------------|---------------|----------------|
D|---------------|----------------|---------------|----------------|
A|---------------|----------------|---------------|----------------|
E|---------------|----------------|---------------|----------------|

e|-14--15--17----|----------------|-17--19--21----|-21-------------|
B|---------------|-14-------------|---------------|----------------|
G|---------------|----------------|---------------|----------------|
D|---------------|----------------|---------------|----------------|
A|---------------|----------------|---------------|----------------|
E|---------------|----------------|---------------|----------------|

0:55 - 1:34
   
e|---------------|-----------(17)-|-14------------|-12-------------|
B|---------------|----------------|------------15-|----------------|
G|---------------|-6------(14)----|---------------|-------------12-|
D|-7<<<<<-9------|----------------|---------------|----------------|
A|---------------|----------------|---------------|----------------|
E|---------------|----------------|---------------|----------------|

e|------------10-|-10-----12--14--|------------14-|-----15--17-----|
B|---------------|----------------|---------------|----------------|
G|---------------|----------------|---------------|----------------|
D|---------------|----------------|---------------|----------------|
A|---------------|----------------|---------------|----------------|
E|---------------|----------------|---------------|----------------|

e|-9-----10------|---------12-----|--------10-----|----------------|
B|---------------|----------------|---------------|----------------|
G|---------------|----------------|---------------|----------------|
D|---------------|----------------|---------------|----------------|
A|---------------|----------------|---------------|----------------|
E|---------------|----------------|---------------|----------------|

Bells
0:01 - 0:12

e|-14------------|-12-------------|---------------|-14-------------|
B|---------------|----------------|---------------|----------------|
G|---------------|----------------|---------------|----------------|
D|---------------|----------------|---------------|----------------|
A|---------------|----------------|---------------|----------------|
E|---------------|----------------|---------------|----------------|

0:41 - 0:48

e|-15------------|-----REST-------|------REST-----|-12-------------|
B|---------------|----------------|---------------|----------------|
G|---------------|----------------|---------------|----------------|
D|---------------|----------------|---------------|----------------|
A|---------------|----------------|---------------|----------------|
E|---------------|----------------|---------------|----------------|



e|---17-22-------|-9--------------|-14------------|-12-------------|
B|(19)-----------|----------------|---------------|----------------|
G|---------------|----------------|---------------|----------------|
D|---------------|----------------|---------------|----------------|
A|---------------|----------------|---------------|----------------|
E|---------------|----------------|---------------|----------------|

1:11

e|-14------------|
B|---------------|
G|---------------|
D|---------------|
A|---------------|
E|---------------|

1:21

e|-10------------|
B|---------------|
G|---------------|
D|---------------|
A|---------------|
E|---------------|

Cello
0:24 - 0:39

e|---------------|----------------|-----REST------|------REST------|
B|---------------|----------------|---------------|----------------|
G|---------------|----------------|---------------|----------------|
D|--------4---5--|----------------|---------------|----------------|
A|---------------|----------------|---------------|----------------|
E|---------------|-3--------------|---------------|----------------|

e|---------------|----------------|
B|---------------|----------------|
G|---------------|-4--------------|
D|---------------|----------------|
A|---------4---5-|----------------|
E|-----3---------|----------------|

0:55 - 1:34

e|---------------|-----------(17)-|-----REST------|----------------|
B|---------------|----------------|---------------|----------------|
G|---------------|-6-----(14)-----|---------------|-9<<<<<---------|
D|-7<<<<<-9------|----------------|---------------|----------------|
A|---------------|----------------|---------------|----------------|
E|---------------|----------------|---------------|----------------|

e|---------------|----------------|-----REST------|-----REST-------|
B|------------8--|-7--------------|---------------|----------------|
G|-9-------------|-------------7--|---------------|----------------|
D|---------------|----------------|---------------|----------------|
A|---------------|----------------|---------------|----------------|
E|---------------|----------------|---------------|----------------|

e|-----REST------|----------------|---------------|
B|---------------|----------------|---------------|
G|---------------|----------------|---------------|
D|---------------|----------------|---------------|
A|---------------|----------5-----|---------------|
E|---------------|----------------|---------------|

Synthesizer
0:15 - 0:39

e|-14<<<<<<------|----------------|---------------|----------------|
B|---------------|----------------|---------------|-12-------------|
G|---------------|-11-------------|---------------|----------------|
D|---------------|----------------|---------------|----------------|
A|---------------|----------------|---------------|----------------|
E|---------------|----------------|---------------|----------------|

e|---------------|----------------|---------------|----------------|
B|---------------|----------------|---------------|----------------|
G|--------11-----|----------------|---------------|-12-------------|
D|---------------|----------------|---------------|----------------|
A|---------------|----------------|---------------|----------------|
E|---------------|----------------|---------------|----------------|

1:01 - 1:34

e|-14------------|-12-------------|---------------|-14-------------|
B|---------------|----------------|---------------|----------------|
G|---------------|----------------|---------------|----------------|
D|---------------|----------------|---------------|----------------|
A|---------------|----------------|---------------|----------------|
E|---------------|----------------|---------------|----------------|

e|---------------|----------------|-9-----10------|--------12------|
B|---------------|----------------|---------------|----------------|
G|---------------|----------------|---------------|----------------|
D|---------------|----------------|---------------|----------------|
A|---------------|----------------|---------------|----------------|
E|---------------|----------------|---------------|----------------|

e|--------10-----|----------------|
B|---------------|----------------|
G|---------------|----------------|
D|---------------|----------------|
A|---------------|----------------|
E|---------------|----------------|

Flute
0:39 - 0:57

e|-------19---21-|-22---------21--|--------19-----|----17----------|
B|---------------|----------------|---------------|----------------|
G|---------------|----------------|---------------|----------------|
D|---------------|----------------|---------------|----------------|
A|---------------|----------------|---------------|----------------|
E|---------------|----------------|---------------|----------------|

e|-15---------14-|--------12------|-------14------|----------------|
B|---------------|----------------|---------------|-15-------------|
G|---------------|----------------|---------------|----------------|
D|---------------|----------------|---------------|----------------|
A|---------------|----------------|---------------|----------------|
E|---------------|----------------|---------------|----------------|

e|-9-------------|
B|---------------|
G|---------------|
D|---------------|
A|---------------|
E|---------------|

<<<< Fade In
(#) Ghost note/ quiet note

That's it, pick which parts you want to play and listen to get the timing
correct.  If the frets are too high for your guitar bring it down
one octave (12 frets) and play it that way.

I can provide you with note names, sheet music, or a guitar pro file if
you message me.
Please give me credit if you use this tab for a video...
Email questions or comments to azlizard13@yahoo.com