Login or Register to remove this ad. | Advertise Here

The Friendly Arm's Inn (Baldurs Gate) Guitar Tab

Submitted: Jul 04, 2011 by schamp92

5
Average: 5 (3 votes)
Download | Listen
Game: Baldurs Gate
Composer(s): Michael Hoenig
Style: Arrangement, Fingerstyle
Series: Baldurs Gate

AutoScroll: Slow | Medium | Fast
The Friendly Arm's Inn
Baldur's Gate

Composed by Michael Hoenig
Tabbed by Simon Champetier (schamp92)
Created 3 April, 2011


                            ^        ^                          ^      
     Q    Q    Q    Q       H        Q    Q       H        Q    E  E   

E||----------------------|--6--------3----5----|----------------5-----|
B||--3----3----5----6----|-----------3---------|----------------------|
G||------------5---------|--0--------0---------|--2-------------2--2--|
D||----------------------|---------------------|----------------------|
A||----------------------|----------------0----|-----------0----------|
E||----------------------|--3------------------|----------------------|


  H        Q.     E     Q    Q    H           Q.     E  Q    E  E     Q     E    

-----------5---------|---------------------|------------3----------|------------|
---------------------|--3---------3--------|--3------3----------3--|------------|
------------------2--|-------2-------------|-----------------------|--0-----0---|
---------------------|--0------------------|--0--------------0-----|------------|
--0--------0---------|---------------------|-----------------------|------------|
---------------------|---------------------|------------3----------|-------(3)--|


  Q    E  E  Q.     E     E  E  E  E  Q    Q       Q    E  E  Q    E  E  

--1----------1---------|--1-----------1---------|--0----------0----------|
----------1------------|--------1---------------|----------0----------0--|
-----------------------|------------------------|------------------------|
-----------------------|------------------------|-------2----------2-----|
-------3------------3--|-----3-----3-------3----|------------------------|
--1--------------------|--1-----------1---------|--0---------------------|

                                                ^               ^
  Q    Q    Q    Q       Q.     E  Q    Q       Q    E  E  Q    Q    Q    Q     

------------0---------|------------0---------|--0----------0----0---------0----|
-------0--------------|---------3------------|---------------------------------|
----------------------|---------4--2---------|----------5-------5---------5----|
-------2----2----2----|-----------------2----|-------5---------------5---------|
----------------------|--0-------------------|--3---------------3--------------|
--0-------------------|----------------------|---------------------------------|

                                                                                    ^   
  Q    Q    Q    E  E     Q    E  E  Q    Q    Q    E  E     Q.     E  Q    Q       Q.     E  Q    Q     

-----------------------|----------------------------------|--5-------------------|--4-------------------|
--3---------3----3-----|--1----------0--------------------|--1-------------------|----------------------|
-------2------------2--|----------2-------2---------2-----|------------5---------|------------4---------|
--0--------------0-----|-----------------------2-------2--|---------3-------3----|--2------2-------2----|
-----------------------|------------------0---------------|----------------------|----------------------|
-----------------------|--1----1-----3--------------------|--1-------------------|--0-------------------|


   Q    E  E   Q    Q        Q     Q    Q    Q       Q    E  E  Q    Q     
---8-------7---8---------|---7----------3----7----|--5---------------1----|
---10------8---10--------|---8----------5----8----|--6---------------3----|
-------------------------|------------------------|------------------3----|
--------7----------------|-------------------5----|--3----------3---------|
---------------8----8----|---10----10---3---------|----------3------------|
-------------------------|------------------------|-------1---------------|


  Q.     E  Q    E  E     Q    E  E  Q.     E      E   E  E  E  Q    Q     
------------1-------0--|--1----0-----6---------|--(3)-----5---------------|
-----------------3-----|----------3------------|--------------------------|
-----------------------|--3--------------------|---0------2----------2----|
--3--------------------|-------3------------0--|-------0--------2---------|
---------1-------------|-----------------------|-------------0------------|
-----------------------|-------------3---------|--------------------------|


  Q.     S S Q    Q       Q    Q    Q    Q       Q    Q    Q    Q     
-----------------------|----------------------|----------------------|
-------------3---------|------------3---------|------------3---------|
-----------------------|----------------------|----------------------|
-----------0------0----|--L----0---------0----|--L----0---------0----|
--0------L-------------|----------------------|----------------------|
-----------------------|----------------------|----------------------|


  Q    Q    E  Q.        W                  
----------------------|-------------------||
------------3---------|-------------------||
----------------------|-------------------||
--L----0--------------|-------------------||
---------------0------|--0----------------||
----------------------|-------------------||




Duration Legend
---------------
W - whole
H - half
Q - quarter
E - 8th
S - 16th
T - 32nd
X - 64th
. - note dotted


Tablature Legend
----------------
L - tied note
(n) - ghost note
^ - brush up
v - brush down