Login or Register to remove this ad. | Advertise Here

Romance I (Baldurs Gate II: Shadows of Amn) Guitar Tab

Submitted: May 13, 2010 by Bhael

5
Average: 5 (2 votes)
Download | Listen
Game: Baldurs Gate II: Shadows of Amn
Composer(s): Michael Hoenig
Style: Arrangement, Fingerstyle
Series: Baldurs Gate

AutoScroll: Slow | Medium | Fast
                            Romance 1                                     
                   Baldur's Gate II: Shadows of Amn
                          Michael Hoenig
                                                                 




      E  E   E  E   E  E   E  E      E  E   E  E   E  E   E  E   
E||---8------8-----11------9-----|---8-------------8------8-----|
B||------9------9------9------9--|------9--11--9------9------9--|
G||--10-----10-----10-----10-----|--10-----10-----10-----10-----|
D||------------------------------|------------------------------|
A||------------------------------|------------------------------|
D||------------------------------|------------------------------|


   E   E   E   E   E   E   E   E      E   E   E   E   E   E   E   E   
---8-------8------11-------9------|---8---------------8-------8------|
-------9-------9-------9-------9--|-------9--11---9-------9-------9--|
--10------10------10------10------|--10------10------10------10------|
------11------11------11------11--|------11------11------11------11--|
----------------------------------|----------------------------------|
----------------------------------|----------------------------------|


   E  E   E  E   E  E   E  E      E  E   E  E   E  E   E  E   
---8------8-----11------9-----|---8-------------8------8-----|
------9------9------9------9--|------9--11--9------9------9--|
--10-----10-----10-----10-----|--10-----10-----10-----10-----|
------8------8------8------8--|------8------8------8------8--|
------------------------------|------------------------------|
------------------------------|------------------------------|


                           ^                        
  W                    E   E   E  E   E  E   E  E   
-------------------|-----------------11------9-----|
-------------------|--11---9--11--9------9------9--|
-------------------|----------10-----10-----10-----|
-------------------|------11-----------------------|
--9----------------|-------------------------------|
-------------------|-------------------------------|


                    ^                                        
   E  E   Q    E    E   E  E      E  E   E  E   E  E   Q     
---8-----------8--------------|--11------9------8-----------|
------9--11---------9--11--9--|------9------9------9--11----|
--10-----10------------10-----|--10-----10-----10-----10----|
------------------------------|-----------------------------|
------------------------------|-----------------------------|
------------------<>8---------|-----------------------------|


  E    E  E  E   E  E   E  E      E  E   Q    E  Q.        W                 
--8----4--6--4--11------9-----|---8-----------8--4------|-------------------|
----------6---------9------9--|------9--11--------------|-------------------|
----------------10-----10-----|--10-----10--------------|-------------------|
------------------------------|-------------------------|-------------------|
------------------------------|-------------------------|-------------------|
-----<>4----------------------|------------------1------|--L----------------|


  E   E   E  E   E  E   E  E      E  E   E  E   E  E    E  E   
--8---9---8--9--13------8-----|--11--9---8-----11--9s---6--9--|
------9------9------9------9--|------9------9------9-------9--|
---------10-----10-----10-----|--10-----10-----10------10-----|
------------------------------|-------------------------------|
------------------------------|-------------------------------|
-----11-----------------------|--------------------8----------|


                                       ^                         
   E  E   E  E   E   E    E  E      E  E   E  E   E  E   E   E   
--13------8-----11p--9p---8-----|---9--8------8---9------8------|
------9------9-------9-------9--|------9------9------9------11--|
--10-----10-----10-------10-----|--10-----10-----10-----10------|
--------------------------------|-------------------------------|
--------------------------------|------9------------------------|
--------------------------------|-------------------------------|


           ^                                                                  
  Q    E   E   Q     Q       W                    E   E   E  E  E  E   E  E   
-------8------------------|-------------------|--11--13---------9------------|
--9-------11p--9----------|-------------------|-------9------9-----9------9--|
----------10--------------|-------------------|--10------10-----------10-----|
----------11--------------|-------------------|------------------------------|
-----------9--------------|-------------------|------------------------------|
--------------------11----|--L----------------|------------------------------|


   E  E  E  E   E   E   E   E     E   E   E   E   E   E  E   E   
---------9---------------------|--9----------------------9------|
------9-----9------11------11--|-----11------11------11-----11--|
--10-----------11------10------|---------10------11-------------|
-------------------------------|--------------------------------|
----------------9--------------|--------------------------------|
-------------------------------|--------------------------------|


   E   E  E   E  E   E  E   E     E   Q    E   E   E  E   E   
----------8------9-------------|----------------------9--11--|
------11-----------------------|-----------------------------|
--11---------10-----10-----10--|-----10-----------10---------|
-------------------------------|-----------------------------|
------------------------9------|--8--------------------------|
----------8--------------------|-----------6s--8-------------|


  ^                            ^                                           
  Q    Q    Q    Q       Q     H.              Q    Q     E    E    Q      
--8-------------------|---------------------|-----------------------------|
--6--------------6----|---------------------|-----------------------------|
--6---------6---------|--8s----5------------|-----------------------------|
-------6--------------|--------5------------|------------(8)-------(8)----|
----------------------|--------3------------|-----------------(8)---------|
--6-------------------|--------3------------|--6----8---------------------|


        ^                                             
  Q     Q     Q     Q        Q      Q     Q     Q     
--8-----9----------------|---------------------------|
-------------------------|---------------------------|
-------10----------10----|--11s----10----------10----|
-------------11----------|---------------11----------|
-------------------------|---------------------------|
--------8----------------|---------------------------|


                 ^                   ^                                       
  Q     E    E   Q     Q       Q     H        Q       E  E  E  E  Q    Q     
--------9h--13--11----------|----------------------|--6----------------6----|
-----------------8----------|--------9--------9----|------------------------|
--L----11s--10---8----------|--8----10-------------|--------6---------------|
----------------------11----|-------11-------------|-----4-----4--4---------|
----------------------------|----------------------|--4---------------------|
----------------------------|----------------------|------------------------|


  ^              ^                      ^                               
  H        Q     Q       Q    Q    Q    Q       Q     Q      H          
--8--------8----11----|--L----9----8----9----|-------------------------|
-----------------8----|-----------------7----|--L----------------------|
--8--------------8----|-----------------6----|-------(6)---------------|
----------------------|-----------------8----|--------------(8)--------|
----------------------|----------------------|-------------------------|
--6-------------------|----------------------|-------------------------|


                                                        ^             
  H        Q    E  E     E  E  H.              E    E   H.            
-----------8----9-----|---------------------|--9h--11---8------------|
----------------------|---------------------|-----------8------------|
----------------------|-----5--8------------|-----------9------------|
--L-------------------|--6------------------|----------10------------|
-------------------6--|---------------------|------------------------|
----------------6-----|---------------------|------------------------|


    W                     H         H           W                  
---------------------|-----------------------|-------------------||
--<>9----------------|--<>6------------------|--L----------------||
---------------------|-----------------------|-------------------||
---------------------|----8p--------7--------|--L----------------||
---------------------|-----------------------|-------------------||
---------------------|-----------------------|-------------------||




Duration Legend
---------------
W - whole
H - half
Q - quarter
E - 8th
S - 16th
T - 32nd
X - 64th
. - note dotted
|-n-|  - n-tuplets


Tablature Legend
----------------
L - tied note
x - dead note
g - grace note
(n) - ghost note
> - accentuded note
NH - natural harmonic
AH - artificial harmonic
TH - tapped harmonic
SH - semi harmonic
PH - pitch harmonic
h - hammer on
p - pull off
b - bend
br - bendRelease
pb - preBend
pbr - preBendRelease
brb - bendReleaseBend
\n/ - tremolo bar dip
\n - tremolo bar dive
-/n - tremolo bar Release up
/n\ - tremolo bar inverted dip
/n - tremolo bar return
-\n - tremolo bar Release down
S - shift slide
s - legato slide
/ -  slide into from below or out of upwards
\ -  slide into from above or out of downwards
~ - vibrato
W - wide vibrato
tr - trill
TP - tremolo picking
T - tapping
S - slap
P - pop
< - fade in
^ - brush up
v - brush down

1 comment on Romance I

Woah

Haha this is perfect I just wish I could play it. Maybe make a video of you playing it? Pleeaaase