Login or Register to remove this ad. | Advertise Here

Boss Theme (Baldurs Gate: Dark Alliance) Guitar Tab

Submitted: Jul 31, 2010 by Bhael

5
Average: 5 (2 votes)
Download | Listen
Game: Baldurs Gate: Dark Alliance
Composer(s): Jeremy Soule
Style: Arrangement, Fingerstyle
Series: Baldurs Gate

AutoScroll: Slow | Medium | Fast
                                  Boss Theme         
                          Baldur's Gate: Dark Alliance                          
                            Craig Stuart Garfinkle




     S S S S S S S S S S S S    S S S S S S E.  E.     S S S S S S S S S S S S  
E||--------2-----------2-----|--------2-------------|--------2-----------2-----|
B||------3---3-------3---3---|------3---3---2---3---|------3---3-------3---3---|
G||----4-------4---4-------4-|----4-------4---------|----4-------4---4-------4-|
D||--------------------------|----------------------|--------------------------|
A||--2-----------------------|----------------------|--2-----------4-----------|
D||--------------0-----------|--2-----------4---4---|--------------0-----------|


  S S S S S S E.  E.     S S S S S S S S S S S S    S S S S S S S S S S S S  
--------2-----0---2---|--------------------------|--2-----0-----------------|
------3---3---0---0---|--0-----2-----3-----0-----|--------------2-----------|
----4-------4-0---0---|------4-----4-----4-----4-|------4-----4-------2-----|
--0-----------2---4---|----4-----4-----4-----4---|----4-----4-------2-----2-|
----------------------|--2-----------------------|----------------4-----4---|
--2-------------------|--------------0-----------|--2-----------4-----------|


  S S S S S S S S S S S S    S S S S S S Q.        S S S S S S S S S S S S  
--------------------2-----|--3-----0------------|--------------7-----------|
--0-----2-----3-----------|--------------2------|--------0-----------7-----|
------4-----4-----4-----4-|------4-----4--------|--7-----------------------|
----4-----4-----4-----4---|----4-----4----------|------9-----9-----9-----9-|
--2-----------------------|---------------------|----9-----9-----9-----9---|
--------------0-----------|--2-----------4------|--9-----------0-----------|


  S S S S S S S S S S S S    S S S S S S S S S S S S    S S S S S S S S S S E   
--5-----3-----------------|--------------------------|--2-----0-----6----------|
--------------2-----------|--0-----2-----3-----0-----|------------------8---7--|
------4-----4-------2-----|------4-----4-----4-----4-|------4-----4------------|
----4-----4-------2-----2-|----4-----4-----4-----4---|----4-----4-----4---4----|
----------------4-----4---|--2-----------------------|-------------------------|
--2-----------4-----------|--------------0-----------|--2-----------4----------|


  S S S S S S S S S S S S    S S S S S S E.  E.     S S S S S S S S S S S S  
--------------------------|----------------------|--------------------------|
--0-----0-----0-----0-----|--0-----0-----2---3---|--0-----0-----0-----0-----|
------4-----4-----4-----4-|------4-----4---------|------4-----4-----4-----4-|
----4-----4-----4-----4---|----4-----4-----------|----4-----4-----4-----4---|
--2-----------------------|----------------------|--2-----------4-----------|
--------------0-----------|--2-----------4---4---|--------------0-----------|


  S S S S S S E.  E.     S S S S S S S S S S S S    S S S S S S S S S S S S  
--------------0---2---|--------------------------|--2-----0-----------------|
--0-----0-----0---0---|--0-----2-----3-----0-----|--------------2-----------|
------4-----4-0---0---|------4-----4-----4-----4-|------4-----4-------2-----|
----4-----4---2---4---|----4-----4-----4-----4---|----4-----4-------2-----2-|
--5-------------------|--2-----------------------|----------------4-----4---|
--2-------------------|--------------0-----------|--2-----------4-----------|


  S S S S S S S S S S S S    S S S S S S Q.        S S S S S S S S S S S S  
--------------------2-----|--3-----0------------|--------------7-----------|
--0-----2-----3-----------|--------------2------|--------0-----------7-----|
------4-----4-----4-----4-|------4-----4--------|--7-----------------------|
----4-----4-----4-----4---|----4-----4----------|------9-----9-----9-----9-|
--2-----------------------|---------------------|----9-----9-----9-----9---|
--------------0-----------|--2-----------4------|--9-----------0-----------|


                                                                    ^       
  S S S S S S S S S S S S    S S S S S S S S S S S S    S S S S S S Q.      
--5-----3-----------------|--------------------------|--2-----0-----6------|
--------------2-----------|--0-----2-----3-----0-----|---------------------|
------4-----4-------2-----|------4-----4-----4-----4-|------4-----4-4------|
----4-----4-------2-----2-|----4-----4-----4-----4---|----4-----4---4------|
----------------4-----4---|--2-----------------------|---------------------|
--2-----------4-----------|--------------0-----------|--2-----------4------|


  E  S E  S E  S E  S    E  S E  S E  S E  S    S S S S S S S S S S S S  
----------------------|----------------------|--------------------------|
-------3----3--2-2----|------------2--0-0----|--0-2-3-2-0---------------|
-----4----4---------2-|-------3--------------|------------------0-------|
----------------------|-----4----4---------4-|------------4-2-4---4-2---|
--2-------------------|----------------------|--2---------------------4-|
------------0---------|--2---------4---------|--------------0-----------|


  S S S S S S S S S  S S S    E  S E  S E  S E  S    E  S E  S E  S E.   
----0-0---3-3---6-6----9-9-|----------------------|------------0--------|
--2-----5-----7-----11-----|-------3----3--2-2----|-------2-------3-3---|
---------------------------|-----4----4---------2-|-----3----3----------|
--------2------------------|----------------------|---------------------|
--2------------------------|--2-------------------|---------------------|
--------------4-----11-----|------------0---------|--2---------4--------|


                                                          ^     
  S S S S S S S S S  S S S     S  S  S  S  S  S  S  S  S  E.    
----0-0---3-3---6-6----9-9-|-----14-14----14-14----14-14------||
--2-----5-----7-----11-----|-----------------------------12---||
---------------------------|-----------11----------------11---||
---------------------------|--12----------------12-------12---||
---------------------------|----------------------------------||
--0-----2-----4-----11-----|------------------------------9---||




Duration Legend
---------------
W - whole
H - half
Q - quarter
E - 8th
S - 16th
T - 32nd
X - 64th
. - note dotted
|-n-|  - n-tuplets


Tablature Legend
----------------
L - tied note
x - dead note
g - grace note
(n) - ghost note
> - accentuded note
NH - natural harmonic
AH - artificial harmonic
TH - tapped harmonic
SH - semi harmonic
PH - pitch harmonic
h - hammer on
p - pull off
b - bend
br - bendRelease
pb - preBend
pbr - preBendRelease
brb - bendReleaseBend
\n/ - tremolo bar dip
\n - tremolo bar dive
-/n - tremolo bar Release up
/n\ - tremolo bar inverted dip
/n - tremolo bar return
-\n - tremolo bar Release down
S - shift slide
s - legato slide
/ -  slide into from below or out of upwards
\ -  slide into from above or out of downwards
~ - vibrato
W - wide vibrato
tr - trill
TP - tremolo picking
T - tapping
S - slap
P - pop
< - fade in
^ - brush up
v - brush down

2 comments on Boss Theme

that's one depressing tune

that's one depressing tune

Beautiful

5

Beautiful