Login or Register to remove this ad. | Advertise Here

Venice Rooftops (Assassins Creed II) Guitar Tab

Submitted: Dec 29, 2010 by A Dead Fly

5
Average: 5 (1 vote)
Download | Listen
Game: Assassins Creed II
Composer(s): Jesper Kyd
Style: Transcription
Series: Assassins Creed

AutoScroll: Slow | Medium | Fast
Artist: Jesper Kyd
Album: Assassin's Creed II
Song: Venice Rooftops
Tabbed By: A Dead Fly

Song transcribed to two guitars preferably one electric (drop D tuning)
and one steel string acoustic (standard tuning)

Electric with drop tuning - guitar one
Acoustic with standard - guitar two

0:00 - 0:39

Guitar One

You can tremolo pick these notes if you want
e|----------------|----------------|----------------|----------------|
B|----------------|----------------|----------------|----------------|
G|-7--------------|-9--------------|----------------|-10-------------|
D|----------------|----------------|----------------|----------------|
A|----------------|----------------|----------------|----------------|
D|----------------|----------------|----------------|----------------|

e|----------------|----------------|----------------|----------------|
B|----------------|----------------|----------------|----------------|
G|-7--------------|-9--------------|----------------|--------10------|
D|----------------|----------------|----------------|-10-------------|
A|----------------|----------------|----------------|----------------|
D|----------------|----------------|----------------|----------------|

e|----------------|----------------|----------------|----------------|
B|----------------|----------------|----------------|-8--------------|
G|-7--------------|-9--------------|-10-------------|----------------|
D|----------------|----------------|----------------|----------------|
A|----------------|----------------|----------------|----------------|
D|----------------|----------------|----------------|----------------|

e|----------------|----------------|----------------|----------------|
B|----------------|----------------|----------------|----------------|
G|-7--------------|-9--------------|----------------|-10-------------|
D|----------------|----------------|----------------|----------------|
A|----------------|----------------|----------------|----------------|
D|----------------|----------------|----------------|----------------|

e|----------------|----------------|----------------|----------------|
B|----------------|----------------|----------------|----------------|
G|-7--------------|----------------|----------------|-10-------------|
D|----------------|----------------|----------------|----------------|
A|----------------|----------------|----------------|----------------|
D|----------------|----------------|----------------|----------------|

As an alternative for guitar one, this is barely audible in the song,
but there's another guitar that plays this, and you can switch out
the last two sets of bars of guitar one with these if you like them:

*All bends here are full bends
e|------------------|------------------|------------------|------------------|
B|------------------|------------------|------------------|------------------|
G|------------------|------------------|------------------|------------------|
D|-7-8-7-8B--8--7h8p|-7-8-7-8B--8--7h8p|-7-8-7-8B--8--7h8p|-7-8-7-8B--8--7h8p|
A|------------------|------------------|------------------|------------------|
D|------------------|------------------|------------------|------------------|

e|-----------------|-----------------|-----------------|-----------------|
B|-----------------|-----------------|-----------------|-----------------|
G|-----------------|-----------------|-5-5-5-5-5-5-5-55|-5-5-5-5-5-5-5-55|
D|-7-7-7-7-7-7-7-77|-8-8-8-8-8-8-8-88|-----------------|-----------------|
A|-----------------|-----------------|-----------------|-----------------|
D|-----------------|-----------------|-----------------|-----------------|

Guitar Two (rest for the first few seconds of this part)

e|----------------|--0--0-0--0-0-0-|--0--0-0--0-0-0-|-0--0-0-1-1-1-1-|
B|--3--3-3--3-3-3-|--3--3-3--3-3-3-|--3--3-3--3-3-3-|-1--1-1-3-3-3-3-|
G|--2--2-2--2-2-2-|--2--2-2--2-2-2-|--2--2-2--2-2-2-|-2--2-2-2-2-2-2-|
D|--0--0-0--0-0-0-|--0--0-0--0-0-0-|--0--0-0--0-0-0-|-0--0-0-0-0-0-0-|
A|----------------|----------------|----------------|----------------|
E|----------------|----------------|----------------|----------------|

e|----------------|--0--0-0--0-0-0-|--1--1-1--1-1-1-|--3--3-3--3-3-3-|
B|--3--3-3--3-3-3-|--3--3-3--3-3-3-|--3--3-3--3-3-3-|--3--3-3--3-3-3-|
G|--2--2-2--2-2-2-|--2--2-2--2-2-2-|--2--2-2--2-2-2-|--2--2-2--2-2-2-|
D|--0--0-0--0-0-0-|--0--0-0--0-0-0-|--0--0-0--0-0-0-|--0--0-0--0-0-0-|
A|----------------|----------------|----------------|----------------|
E|----------------|----------------|----------------|----------------|

e|--5--5-5--5-5-5-|--5--5-5--5-5-5-|--5--5-5--5-5-5-|--5--5-5--5-5-5-|
B|--3--3-3--3-3-3-|--3--3-3--3-3-3-|--3--3-3--3-3-3-|--3--3-3--3-3-3-|
G|--2--2-2--2-2-2-|--2--2-2--2-2-2-|--2--2-2--2-2-2-|--2--2-2--2-2-2-|
D|--0--0-0--0-0-0-|--0--0-0--0-0-0-|--0--0-0--0-0-0-|--0--0-0--0-0-0-|
A|----------------|----------------|----------------|----------------|
E|----------------|----------------|----------------|----------------|

e|--5--5-5--5-5-5-|--6--6-6--6-6-6-|--6--6-6--6-6-6-|--8--8-8--8-8-8-|
B|--x--x-x--x-x-x-|--x--x-x--x-x-x-|--x--x-x--x-x-x-|--x--x-x--x-x-x-|
G|--7--7-7--7-7-7-|--7--7-7--7-7-7-|--7--7-7--7-7-7-|--7--7-7--7-7-7-|
D|--7--7-7--7-7-7-|--7--7-7--7-7-7-|--7--7-7--7-7-7-|--7--7-7--7-7-7-|
A|--5--5-5--5-5-5-|--5--5-5--5-5-5-|--5--5-5--5-5-5-|--5--5-5--5-5-5-|
E|----------------|----------------|----------------|----------------|

0:39 - 0:54

Guitar One distorted

The song only plays the bass note, but I like to play the whole power
chord which is why they're in paranthesis

e|----------------|----------------|----------------|----------------|
B|----------------|----------------|----------------|----------------|
G|----------------|----------------|----------------|----------------|
D|-(0)----(7)-----|-(5)----(7)-----|-(0)----(7)-----|-(5)----(7)-----|
A|-(0)----(7)-----|-(5)----(7)-----|-(0)----(7)-----|-(5)----(7)-----|
D|--0------7------|--5------7------|--0------7------|--5------7------|

Play that twice

Guitar Two

e|---------1-1-1-1-|3-3-3-33-5-5-5-5-|---------1-1-1-1-|3-3-3-33-1-1-1-1-|
B|3-3-3-33-3-3-3-3-|3-3-3-33-6-6-6-6-|3-3-3-33-3-3-3-3-|3-3-3-33-3-3-3-3-|
G|2-2-2-22-2-2-2-2-|2-2-2-22-7-7-7-7-|2-2-2-22-2-2-2-2-|2-2-2-22-2-2-2-2-|
D|0-0-0-00-0-0-0-0-|0-0-0-00-7-7-7-7-|0-0-0-00-0-0-0-0-|0-0-0-00-0-0-0-0-|
A|-----------------|-----------------|-----------------|-----------------|
E|-----------------|-----------------|-----------------|-----------------|

Play that twice

0:54 - 1:47

Guitar One

e|-10-------------|----------------|--------8-10-12-|-13-12-10-------|
B|----------------|----------------|----------------|----------------|
G|----------------|----------------|----------------|----------------|
D|----------------|----------------|----------------|----------------|
A|----------------|----------------|----------------|----------------|
D|----------------|----------------|----------------|----------------|

e|----------------|-13-12-10-------|----------------|----------------|
B|----------------|----------------|----------------|----------------|
G|----------------|----------------|----------------|----------7-----|
D|----------------|----------------|----------------|----------------|
A|----------------|----------------|----------------|----------------|
D|----------------|----------------|----------------|----------------|

e|----------------|----------------|----------------|----------------|
B|-5-------6------|----------------|----------------|----------------|
G|----------------|-5--------------|-4--------------|-7--------------|
D|----------------|----------------|----------------|----------------|
A|----------------|----------------|----------------|----------------|
D|----------------|----------------|----------------|----------------|

e|----------------|----------------|----------------|--------------8-|
B|-5-------6------|----------------|----------------|-----10---------|
G|----------------|-5--------------|----------------|-7--------------|
D|----------------|----------------|----------------|----------------|
A|----------------|----------------|----------------|----------------|
D|----------------|----------------|----------------|----------------|

e|-10-----------8-|-10-------------|----------------|--------------8-|
B|-----------10---|--------10------|----------------|-----10---------|
G|----------------|----------------|----------------|-7--------------|
D|----------------|----------------|----------------|----------------|
A|----------------|----------------|----------------|----------------|
D|----------------|----------------|----------------|----------------|

e|-10-----------8-|-10-----17------|----------------|----------------|
B|-----------10---|----------------|----------------|--------6-------|
G|----------------|----------------|----------------|-7--------------|
D|----------------|----------------|----------------|----------------|
A|----------------|----------------|----------------|----------------|
D|----------------|----------------|----------------|----------------|

e|----------------|-10-----12------|-13----15-------|-17-------------|
B|-8------10------|----------------|----------------|----------------|
G|----------------|----------------|----------------|----------------|
D|----------------|----------------|----------------|----------------|
A|----------------|----------------|----------------|----------------|
D|----------------|----------------|----------------|----------------|

Guitar Two

e|----------------|--0--0-0--0-0-0-|--0--0-0--0-0-0-|--1--1-1--1-1-1-|
B|--3--3-3--3-3-3-|--3--3-3--3-3-3-|--3--3-3--3-3-3-|--3--3-3--3-3-3-|
G|--2--2-2--2-2-2-|--2--2-2--2-2-2-|--2--2-2--2-2-2-|--2--2-2--2-2-2-|
D|--0--0-0--0-0-0-|--0--0-0--0-0-0-|--0--0-0--0-0-0-|--0--0-0--0-0-0-|
A|----------------|----------------|----------------|----------------|
E|----------------|----------------|----------------|----------------|

Play that set of bars 2 Times

e|--5--5-5--5-5-5-|--5--5-5--5-5-5-|--5--5-5--5-5-5-|--5--5-5--5-5-5-|
B|--3--3-3--3-3-3-|--3--3-3--3-3-3-|--3--3-3--3-3-3-|--3--3-3--3-3-3-|
G|--2--2-2--2-2-2-|--2--2-2--2-2-2-|--2--2-2--2-2-2-|--2--2-2--2-2-2-|
D|--0--0-0--0-0-0-|--0--0-0--0-0-0-|--0--0-0--0-0-0-|--0--0-0--0-0-0-|
A|----------------|----------------|----------------|----------------|
E|----------------|----------------|----------------|----------------|

Play that set of bars 5 Times

e|---------1-1-1-1-|3-3-3-33-5-5-5-5-|-----------------|-----------------|
B|3-3-3-33-3-3-3-3-|3-3-3-33-6-6-6-6-|3-3-3-33-3-3-3-3-|3-3-3-33-3-3-3-3-|
G|2-2-2-22-2-2-2-2-|2-2-2-22-7-7-7-7-|2-2-2-22-2-2-2-2-|2-2-2-22-2-2-2-2-|
D|0-0-0-00-0-0-0-0-|0-0-0-00-7-7-7-7-|0-0-0-00-0-0-0-0-|0-0-0-00-0-0-0-0-|
A|-----------------|-----------------|-----------------|-----------------|
E|-----------------|-----------------|-----------------|-----------------|

1:47 - 2:25

Guitar One

     * Note that was hit at the end of the buildup
e|-(17)-----------|----------------|----------------|----------------|
B|---------6------|-8------10------|--------6-------|-8------6-------|
G|----------------|----------------|-7--------------|----------------|
D|----------------|----------------|----------------|----------------|
A|----------------|----------------|----------------|----------------|
D|----------------|----------------|----------------|----------------|

e|----------------|----------------|----------------|----------------|
B|--------6-------|-8------10------|--------6-------|-8------6-------|
G|-7--------------|----------------|-7--------------|----------------|
D|----------------|----------------|----------------|----------------|
A|----------------|----------------|----------------|----------------|
D|----------------|----------------|----------------|----------------|

Play those last four bars 2 times

e|----------------|----------------|----------------|----------------|
B|----------------|----------------|----------------|----------------|
G|----------------|----------------|----------------|----------------|
D|----------------|-7--------------|----------------|-5--------------|
A|-5--------------|----------------|-8--------------|--------7---8---|
D|----------------|----------------|----------------|----------------|

e|----------------|----------------|----------------|----------------|
B|----------------|----------------|----------------|----------------|
G|----------------|----------------|----------------|----------------|
D|----------------|-5--------------|----------------|----------------|
A|-5--------------|----------------|-7--------------|-8--------------|
D|----------------|----------------|----------------|----------------|

Guitar Two

e|---------1-1-1-1-|3-3-3-33-5-5-5-5-|---------1-1-1-1-|3-3-3-33-1-1-1-1-|
B|3-3-3-33-3-3-3-3-|3-3-3-33-6-6-6-6-|3-3-3-33-3-3-3-3-|3-3-3-33-3-3-3-3-|
G|2-2-2-22-2-2-2-2-|2-2-2-22-7-7-7-7-|2-2-2-22-2-2-2-2-|2-2-2-22-2-2-2-2-|
D|0-0-0-00-0-0-0-0-|0-0-0-00-7-7-7-7-|0-0-0-00-0-0-0-0-|0-0-0-00-0-0-0-0-|
A|-----------------|-----------------|-----------------|-----------------|
E|-----------------|-----------------|-----------------|-----------------|

Play that 3 times

e|----------------|--0--0-0--0-0-0-|--0--0-0--0-0-0-|--1--1-1--1-1-1-|
B|--3--3-3--3-3-3-|--3--3-3--3-3-3-|--3--3-3--3-3-3-|--3--3-3--3-3-3-|
G|--2--2-2--2-2-2-|--2--2-2--2-2-2-|--2--2-2--2-2-2-|--2--2-2--2-2-2-|
D|--0--0-0--0-0-0-|--0--0-0--0-0-0-|--0--0-0--0-0-0-|--0--0-0--0-0-0-|
A|----------------|----------------|----------------|----------------|
E|----------------|----------------|----------------|----------------|

Play that 2 times

2:25 - End

e|----------------|----------------|----------------|----------------|
B|----------------|----------------|----------------|----------------|
G|----------------|----------------|----------------|----------------|
D|----------------|-5------7-------|----------------|----------------|
A|-5--------------|----------------|-8--------------|-7------8-------|
D|----------------|----------------|----------------|----------------|

e|----------------|----------------|----------------|----------------|
B|----------------|----------------|----------------|----------------|
G|----------------|----------------|----------------|----------------|
D|----------------|--------5-------|----------------|----------------|
A|-5--------------|-8--------------|-7--------------|----------------|
D|----------------|----------------|----------------|----------------|

e|-8----------7h8p|7---------------|----------------|----------------|
B|----------------|--------8-------|-10---------6h8p|6-------5-------|
G|----------------|----------------|----------------|----------------|
D|----------------|----------------|----------------|----------------|
A|----------------|----------------|----------------|----------------|
D|----------------|----------------|----------------|----------------|

e|----------------|----------------|----------------|----------------|
B|----------------|-5------6-------|------------5h6p|5---------------|
G|-7--------------|----------------|----------------|------7---------|
D|----------------|----------------|----------------|----------------|
A|----------------|----------------|----------------|----------------|
D|----------------|----------------|----------------|----------------|

Guitar Two

e|----------------|--0--0-0--0-0-0-|--0--0-0--0-0-0-|--1--1-1--1-1-1-|
B|--3--3-3--3-3-3-|--3--3-3--3-3-3-|--3--3-3--3-3-3-|--3--3-3--3-3-3-|
G|--2--2-2--2-2-2-|--2--2-2--2-2-2-|--2--2-2--2-2-2-|--2--2-2--2-2-2-|
D|--0--0-0--0-0-0-|--0--0-0--0-0-0-|--0--0-0--0-0-0-|--0--0-0--0-0-0-|
A|----------------|----------------|----------------|----------------|
E|----------------|----------------|----------------|----------------|

Play that 2 times

e|----------------|--0--0-0--0-0-0-|--0--0-0--0-0-0-|--0--0-0--0-0-0-|
B|--3--3-3--3-3-3-|--3--3-3--3-3-3-|--1--1-1--1-1-1-|--0--0-0--0-0-0-|
G|--2--2-2--2-2-2-|--2--2-2--2-2-2-|--2--2-2--2-2-2-|--2--2-2--2-2-2-|
D|--0--0-0--0-0-0-|--0--0-0--0-0-0-|--0--0-0--0-0-0-|--0--0-0--0-0-0-|
A|----------------|----------------|----------------|----------------|
E|----------------|----------------|----------------|----------------|

Play that 2 times

Email questions or comments to azlizard13@yahoo.com
Please give me credit if you use this tab for a video