Login or Register to remove this ad. | Advertise Here

Home in Florence (Assassins Creed II) Guitar Tab

Submitted: Oct 21, 2010 by A Dead Fly

0
Download | Listen
Game: Assassins Creed II
Composer(s): Jesper Kyd
Style: 2 or more instruments, Transcription
Series: Assassins Creed

AutoScroll: Slow | Medium | Fast
Standard Tuning
Artist: Jesper Kyd
Album: Assassin's Creed 2
Song: Home In Florence

Tabbed by: A Dead Fly



Lower Octave Keyboard
0:00 - about 0:50

e|----------------|----------------|----------------|----------------|
B|----------------|----------------|----------------|----------------|
G|----------------|----------------|----------------|----------------|
D|-------------12-|-----10---------|----------------|-9---9----------|
A|-12-------8-----|----------------|-12------10--10-|-------------12-|
E|-----10---------|-10------10--10-|-----10---------|---------10-----|

e|----------------|----------------|----------------|----------------|
B|----------------|----------------|----------------|----------------|
G|----------------|----------------|----------------|----------------|
D|-10---9--12--12-|----------10----|-10-------------|------9---9-----|
A|----------------|-----12-------8-|---------12-----|----------------|
E|----------------|-10-------------|-----10------10-|-10----------10-|

e|----------------|----------------|----------------|----------------|
B|----------------|----------------|----------------|----------------|
G|----------------|----------------|--------------9-|----------9-----|
D|-10--10---------|-9--------------|-10---9--12-----|-10--10---------|
A|----------------|-----10--12-----|----------------|--------------7-|
E|---------10--10-|-------------10-|----------------|----------------|

e|----------------|----------------|----------------|----------------|
B|----------------|----------------|----------------|----------------|
G|----------------|----------------|----------------|----------------|
D|-----9----------|-----10---9--12-|-12-------9-----|-7---7--------9-|
A|-7-------10--10-|-12-------------|-----10-------8-|---------10-----|
E|----------------|----------------|----------------|----------------|

e|----------------|----------------|----------------|----------------|
B|----------------|----------------|----------------|----------------|
G|--------------9-|----------------|-------------10-|----------------|
D|-7---10---7-----|--------------9-|-7---10--10-----|----------------|
A|----------------|-----12--10-----|----------------|-12------12--10-|
E|----------------|-12-------------|----------------|-----13---------|

e|----------------|----------------|----------------|----------------|
B|----------------|----------------|----------------|----------------|
G|----------------|----------------|----------------|----------------|
D|-9-------10-----|-9--------------|-------------12-|------9---------|
A|-----12------10-|-----8-------12-|-10--10--12-----|-10------12-----|
E|----------------|---------10-----|----------------|----------------|

Pause (this is where the piano enters, but the lower octave
synthesizer continues also)

e|----------------|----------------|----------------|----------------|
B|----------------|----------------|----------------|----------------|
G|----------------|----------------|----------------|----------------|
D|---------12-----|-10-------------|-------------9--|-9----------10--|
A|------8------12-|-------------12-|-----10--10-----|--------12------|
E|-10-------------|-----10--10-----|-10-------------|----10----------|

e|----------------|----------------|----------------|----------------|
B|----------------|----------------|----------------|----------------|
G|----------------|----------------|----------------|----------------|
D|-9---12--12-----|-----10---------|----------------|-9---9-------10-|
A|----------------|----------8--10-|-----12--12-----|----------------|
E|-------------10-|-10-------------|-10----------10-|---------10-----|

e|----------------|----------------|----------------|----------------|
B|----------------|----------------|----------------|----------------|
G|----------------|----------------|----------------|----------------|
D|-10----------9--|-------------10-|--9------9--10--|-10-------------|
A|----------------|-10--12--12-----|----------------|----------------|
E|-----10--10-----|----------------|-----10---------|-----12--13--13-|

e|----------------|----------------|----------------|----------------|
B|----------------|----------------|----------------|----------------|
G|----------------|----------------|----------------|----------------|
D|--9-------------|-10---9--12--12-|------9-------7-|--7-------9---9-|
A|-----10--10--12-|----------------|-10-------8-----|-----10---------|
E|----------------|----------------|----------------|----------------|

e|----------------|----------------|----------------|----------------|
B|----------------|----------------|----------------|----------------|
G|----------9-----|----------------|----------------|----------------|
D|-10-------------|--7-------9-----|-10--10-------7-|--------------9-|
A|-----12-------8-|-----10------12-|----------8-----|--8---8--10-----|
E|----------------|----------------|----------------|----------------|

e|----------------|----------------|----------------|----------------|
B|----------------|----------------|----------------|----------------|
G|----------------|----------------|----------------|----------------|
D|-----10-------9-|----------------|----------------|--9-------------|
A|-12------10-----|--8------12--10-|-10--12--12--10-|-----12--12-----|
E|----------------|-----10---------|----------------|-------------10-|

e|----------------|----------------|----------------|----------------|
B|----------------|----------------|----------------|----------------|
G|----------------|----------------|----------------|----------------|
D|-----12------10-|----------------|----------9-----|---------10--9--|
A|--8------12-----|---------12-----|-10--10------12-|-----12---------|
E|----------------|-10--10------10-|----------------|-10-------------|

e|----------------|----------------|----------------|----------------|
B|----------------|----------------|----------------|----------------|
G|----------------|----------------|----------------|----------------|
D|-12--12------10-|----------------|----------9-----|-----10------12-|
A|----------------|--8--10------12-|-----12------12-|-12------12-----|
E|---------10-----|---------10-----|-10-------------|----------------|

Starts Fading Out Somewere Around Here

e|----------------|----------------|----------------|----------------|
B|----------------|----------------|----------------|----------------|
G|----------------|----------------|----------------|-------------9--|
D|-----9----9-----|-10--10---------|--9-------------|-10---9--12-----|
A|----------------|----------------|-----10--12-----|----------------|
E|-10----------10-|---------10--10-|-------------10-|----------------|

e|----------------|----------------|----------------|----------------|
B|----------------|----------------|----------------|----------------|
G|----------9-----|----------------|----------------|----------------|
D|-10--10---------|------9---------|-----10---9--12-|-12-------9-----|
A|--------------7-|--7------10--10-|-12-------------|-----10-------8-|
E|----------------|----------------|----------------|----------------|

e|----------------|----------------|----------------|----------------|
B|----------------|----------------|----------------|----------------|
G|----------------|-------------9--|----------------|-------------10-|
D|--7---7-------9-|--7--10---------|-------------9--|-7---10--10-----|
A|---------10-----|---------12-----|-----12--10-----|----------------|
E|----------------|----------------|-12-------------|----------------|

e|----------------|----------------|----------------|----------------|
B|----------------|----------------|----------------|----------------|
G|----------------|----------------|----------------|----------------|
D|----------------|-9-------10-----|-9--------------|-------------12-|
A|-12------12--10-|-----12------10-|-----8-------12-|-10--10--12-----|
E|-----13---------|----------------|---------10-----|----------------|

e|----------------|
B|----------------|
G|----------------|
D|------9---------|
A|-10------12-----|
E|----------------|

Higher Octave Piano
(enters in where that slight pause is)
0:20 - about 0:50

e|---------10-----|-8--------------|-------------7--|-7------------8-|
B|-----6-------10-|-------------10-|-----8---8------|---------10-----|
G|-7--------------|-----7---7------|-7--------------|-----7----------|
D|----------------|----------------|----------------|----------------|
A|----------------|----------------|----------------|----------------|
E|----------------|----------------|----------------|----------------|

e|-7---10--10-----|-----8----------|----------------|-7---7-------8--|
B|----------------|---------6---8--|-----10--10-----|----------------|
G|--------------7-|-7--------------|-7-----------7--|---------7------|
D|----------------|----------------|----------------|----------------|
A|----------------|----------------|----------------|----------------|
E|----------------|----------------|----------------|----------------|

e|-8-----------7--|-------------8--|-7-------7---8--|-8--------------|
B|----------------|-8---10--10-----|----------------|----------------|
G|-----7---7------|----------------|-----7----------|-----9---10--10-|
D|----------------|----------------|----------------|----------------|
A|----------------|----------------|----------------|----------------|
E|----------------|----------------|----------------|----------------|

e|-7--------------|-8---7---10--10-|-----7-------5--|-5-------7---7--|
B|-----8---8--10--|----------------|-8-------6------|-----8----------|
G|----------------|----------------|----------------|----------------|
D|----------------|----------------|----------------|----------------|
A|----------------|----------------|----------------|----------------|
E|----------------|----------------|----------------|----------------|

e|-8-------12-----|-5-------7------|-8---8--------5-|-------------7--|
B|----10----------|-----8------10--|----------6-----|-6---6---8------|
G|-------------10-|----------------|----------------|----------------|
D|----------------|----------------|----------------|----------------|
A|----------------|----------------|----------------|----------------|
E|----------------|----------------|----------------|----------------|

e|------8-------7-|----------------|----------------|-7--------------|
B|-10-------8-----|-6-------10--8--|--8--10--10--8--|-----10--10-----|
G|----------------|-----7----------|----------------|--------------7-|
D|----------------|----------------|----------------|----------------|
A|----------------|----------------|----------------|----------------|
E|----------------|----------------|----------------|----------------|

e|-----10------8--|----------------|---------7------|----------8---7-|
B|---------10-----|---------10-----|-8---8------10--|-----10---------|
G|-10-------------|-7---7-------7--|----------------|-7--------------|
D|----------------|----------------|----------------|----------------|
A|----------------|----------------|----------------|----------------|
E|----------------|----------------|----------------|----------------|

e|-10--10-------8-|----------------|----------7-----|------8------10-|
B|----------------|--6---8------10-|-----10------10-|-10------10-----|
G|----------7-----|----------7-----|--7-------------|----------------|
D|----------------|----------------|----------------|----------------|
A|----------------|----------------|----------------|----------------|
E|----------------|----------------|----------------|----------------|

Begin Fading Out Somewhere Here

e|------7---7-----|--8---8---------|--7-------------|---------10--12-|
B|----------------|----------------|------8--10-----|-13--12---------|
G|--7----------7--|----------7---7-|--------------7-|----------------|
D|----------------|----------------|----------------|----------------|
A|----------------|----------------|----------------|----------------|
E|----------------|----------------|----------------|----------------|

e|---------12-----|----------------|----------------|----------------|
B|-13--13---------|-----12---------|-----13--12--15-|-15------12-----|
G|-------------9--|--9------12--12-|-14-------------|-----12------10-|
D|----------------|----------------|----------------|----------------|
A|----------------|----------------|----------------|----------------|
E|----------------|----------------|----------------|----------------|

e|----------------|-------------12-|----------------|-------------13-|
B|-10--10------12-|-10--13---------|-------------12-|-10--13--13-----|
G|---------12-----|---------14-----|-----14--12-----|----------------|
D|----------------|----------------|-14-------------|----------------|
A|----------------|----------------|----------------|----------------|
E|----------------|----------------|----------------|----------------|

e|----------------|----------------|----------------|----------------|
B|----------------|-12------13-----|-12-------------|-------------15-|
G|-14------14--12-|-----14------12-|-----10------14-|-12--12--14-----|
D|-----15---------|----------------|---------12-----|----------------|
A|----------------|----------------|----------------|----------------|
E|----------------|----------------|----------------|----------------|

e|----------------|
B|-----12---------|
G|-12------14-----|
D|----------------|
A|----------------|
E|----------------|

Keyboard/ Harp combination
1:00 - about 1:25

(this is the piano, the harp plays the same thing one octave down)

e|----------------|----------------|----------------|-8--------------|
B|-10-------------|----------------|----------------|-8--------------|
G|--7-------------|----------------|----------------|----------------|
D|----------------|----------------|----------------|----------------|
A|----------------|----------------|----------------|----------------|
E|----------------|----------------|----------------|----------------|

e|----------------|----------------|----------------|-15-------------|
B|----------------|----------------|-15-------------|----------------|
G|----------------|----------------|----------------|----------------|
D|----------------|----------------|----------------|----------------|
A|----------------|----------------|----------------|----------------|
E|----------------|----------------|----------------|----------------|

e|----------------|-17-------------|----------------|----------------|
B|----------------|----------------|-17-------------|----------------|
G|----------------|----------------|----------------|----------------|
D|----------------|----------------|----------------|----------------|
A|----------------|----------------|----------------|----------------|
E|----------------|----------------|----------------|----------------|

e|-15-------------|----------------|----------------|-17-------------|
B|----------------|-15-------------|----------------|----------------|
G|----------------|----------------|----------------|----------------|
D|----------------|----------------|----------------|----------------|
A|----------------|----------------|----------------|----------------|
E|----------------|----------------|----------------|----------------|

e|-15-------------|----------------|----------------|----------------|
B|----------------|-17-------------|-15-------------|----------------|
G|----------------|----------------|----------------|-17-------------|
D|----------------|----------------|----------------|----------------|
A|----------------|----------------|----------------|----------------|
E|----------------|----------------|----------------|----------------|

Fades Out Quickly

e|----------------|----------------|----------------|----------------|
B|----------------|----------------|----------------|----------------|
G|-16-------------|-14-------------|----------------|----------------|
D|----------------|----------------|-17-------------|-15-------------|
A|----------------|----------------|----------------|----------------|
E|----------------|----------------|----------------|----------------|

e|----------------|----------------|----------------|----------------|
B|----------------|----------------|----------------|----------------|
G|----------------|----------------|----------------|----------------|
D|----------------|----------------|----------------|----------------|
A|-19-------------|-17-------------|-15-------------|----------------|
E|----------------|----------------|----------------|----------------|


Strings Section
1:26 - about 2:52

e|-12-------------|----------------|----------------|-10-------------|
B|--x-------------|----------------|----------------|--x-------------|
G|--9-------------|----------------|----------------|--7-------------|
D|----------------|----------------|----------------|----------------|
A|----------------|----------------|----------------|----------------|
E|----------------|----------------|----------------|----------------|

e|----------------|-8--------------|----------------|-5--------------|
B|----------------|-x--------------|----------------|-x--------------|
G|----------------|-5--------------|----------------|-2--------------|
D|----------------|----------------|----------------|----------------|
A|----------------|----------------|----------------|----------------|
E|----------------|----------------|----------------|----------------|

Holds that last note for a while then...

e|-5--------------|-9--------------|----------------|----------------|
B|----------------|-x--------------|----------------|----------------|
G|----------------|-6--------------|----------------|----------------|
D|----------------|----------------|----------------|----------------|
A|----------------|----------------|----------------|----------------|
E|----------------|----------------|----------------|----------------|

e|-8--------------|----------------|----------------|-7--------------|
B|----------------|----------------|----------------|-x--------------|
G|----------------|----------------|----------------|-4--------------|
D|----------------|----------------|----------------|----------------|
A|----------------|----------------|----------------|----------------|
E|----------------|----------------|----------------|----------------|

e|----------------|----------------|-6--------------|----------------|
B|----------------|----------------|----------------|----------------|
G|----------------|----------------|----------------|----------------|
D|----------------|----------------|----------------|----------------|
A|----------------|----------------|----------------|----------------|
E|----------------|----------------|----------------|----------------|

e|----------------|-5--------------|-4--------------|----------------|
B|----------------|-x--------------|----------------|----------------|
G|----------------|-2--------------|----------------|----------------|
D|----------------|----------------|----------------|----------------|
A|----------------|----------------|----------------|----------------|
E|----------------|----------------|----------------|----------------|

e|-3--------------|
B|----------------|
G|----------------|
D|----------------|
A|----------------|
E|----------------|

Then after a pause....

(Optionally you can tremolo pick this)

e|-10-------------|-12-------------|-13-------------|-15-------------|
B|----------------|----------------|----------------|----------------|
G|----------------|----------------|----------------|----------------|
D|----------------|----------------|----------------|----------------|
A|----------------|----------------|----------------|----------------|
E|----------------|----------------|----------------|----------------|

e|-17-------------|
B|----------------|
G|----------------|
D|----------------|   Pause
A|----------------|
E|----------------|

e|-17-------------|-19-------------|-20-------------|-22-------------|
B|----------------|----------------|----------------|----------------|
G|----------------|----------------|----------------|----------------|
D|----------------|----------------|----------------|----------------|
A|----------------|----------------|----------------|----------------|
E|----------------|----------------|----------------|----------------|

Pause

e|-20------19-----|-17-------------|----------------|----------------|
B|----------------|----------------|----------------|----------------|
G|----------------|----------------|----------------|----------------|
D|----------------|----------------|----------------|----------------|
A|----------------|----------------|----------------|----------------|
E|----------------|----------------|----------------|----------------|

Pause

e|----------------|
B|----------------|
G|----------------|
D|----------------|
A|----------------|
E|-13-------------|

Another Pause And Then....

e|-12-------------|----------------|----------------|----------------|
B|--x-------------|----------------|----------------|----------------|
G|--9-------------|----------------|----------------|----------------|
D|----------------|----------------|----------------|----------------|
A|----------------|----------------|----------------|----------------|
E|----------------|----------------|----------------|----------------|

e|----------------|----------------|----------------|----------------|
B|-12-------------|----------------|-13-------------|----------------|
G|--x-------------|----------------|----------------|----------------|
D|--9-------------|----------------|----------------|----------------|
A|----------------|----------------|----------------|----------------|
E|----------------|----------------|----------------|----------------|

e|-12-------------|----------------|----------------|----------------|
B|--x-------------|----------------|----------------|----------------|
G|--9-------------|----------------|----------------|----------------|
D|----------------|----------------|----------------|----------------|
A|----------------|----------------|----------------|----------------|
E|----------------|----------------|----------------|----------------|

e|-10-------------|
B|--x-------------|
G|--7-------------|
D|----------------|
A|----------------|
E|----------------|

Piano / Voice Outro
2:50 - end 

e|----------------|----------------|----------------|-7------8-------|
B|-10-------------|-10-------------|-10-------------|----------------|
G|----------------|----------------|----------------|----------------|
D|---------7------|----------7-----|----------------|----------------|
A|----------------|----------------|----------7-----|----------------|
E|----------------|----------------|----------------|----------------|

e|-10-------------|-10-------------|-10-------------|-12------10-----|
B|----------------|----------------|----------------|----------------|
G|---------7------|----------------|----------7-----|----------------|
D|----------------|---------7------|----------------|----------------|
A|----------------|----------------|----------------|----------------|
E|----------------|----------------|----------------|----------------|

e|-8--------------|--8-------------|-7--------------|-10-------------|
B|----------------|----------------|----------------|---------12-----|
G|---------7------|---------7------|---------7------|----------------|
D|----------------|----------------|----------------|----------------|
A|----------------|----------------|----------------|----------------|
E|----------------|----------------|----------------|----------------|

e|----------------|
B|-10-------------|
G|----------------|
D|---------7------|  Play this 4 times
A|----------------|
E|----------------|

e|----------------|
B|-10-------------|  Play This 3 times 
G|---------7------|
D|----------------|
A|----------------|
E|----------------|

e|-7-------8------|
B|----------------|
G|----------------|
D|----------------|
A|----------------|
E|----------------|

e|----------------|
B|-10-------------|
G|---------7------|
D|----------------|  Play this 3 times
A|----------------|
E|----------------|

e|-8-------7------|
B|----------------|
G|----------------|
D|----------------|
A|----------------|
E|----------------|

e|----------------|----------------|----------------|--------7-------|
B|-10-------------|-10-------------|-10-------------|-8--------------|
G|----------------|---------7------|----------------|----------------|
D|----------7-----|----------------|---------7------|----------------|
A|----------------|----------------|----------------|----------------|
E|----------------|----------------|----------------|----------------|

e|----------------|
B|-10-------------|
G|----------------|
D|---------7------|
A|----------------|
E|----------------|

e|----------------|
B|-10-------------|
G|---------7------|  Play this 3 times
D|----------------|
A|----------------|
E|----------------|

e|----------------|
B|-10-------------|
G|----------------|
D|---------7------|  Play this 3 times
A|----------------|
E|----------------|

e|-7-------8------|
B|----------------|
G|----------------|
D|----------------|
A|----------------|
E|----------------|

e|-10-------------|-10-------------|-10-------------|-12-------------|
B|----------------|----------------|----------------|---------10-----|
G|---------7------|----------------|----------7-----|----------------|
D|----------------|---------7------|----------------|----------------|
A|----------------|----------------|----------------|----------------|
E|----------------|----------------|----------------|----------------|

e|-8--------------|
B|----------------|
G|---------7------| Play this twice
D|----------------|
A|----------------|
E|----------------|

e|-7--------------|
B|----------------|
G|---------7------| Play this twice
D|----------------|
A|----------------|
E|----------------|

e|----------------|-7--------------|
B|-10-------------|----------------|
G|---------7------|--------7-------|
D|----------------|----------------|
A|----------------|----------------|
E|----------------|----------------|

e|----------------|
B|-10-------------|
G|---------7------|  Play this 11 times
D|----------------|
A|----------------|
E|----------------|

e|---------7------|
B|-10-------------|
G|----------------|
D|----------------|
A|----------------|
E|----------------|

e|-8--------------|
B|----------------|
G|---------7------| Play this 3 times
D|----------------|
A|----------------|
E|----------------|

e|-8-------7------|----------------|----------------|----------------|
B|----------------|-10-------------|-10-------------|-10-------------|
G|----------------|---------7------|----------7-----|---------7------|
D|----------------|----------------|----------------|----------------|
A|----------------|----------------|----------------|----------------|
E|----------------|----------------|----------------|----------------|

e|---------7------|----------------|
B|-8--------------|-10-------------|
G|----------------|----------------|
D|----------------|----------------|
A|----------------|----------------|
E|----------------|----------------|

The voice follows the higher notes in this part, with the only exception
being when it plays that one bar 11 times, at that part the voice plays
this riff once

e|-8------12------|-10-------------|
B|----------------|----------------|
G|----------------|----------------|
D|----------------|----------------|
A|----------------|----------------|
E|----------------|----------------|

Then there's random arpeggios that aren't playable or tabbable...

The End!

Sorry the tab is so long....

Email questions or comments to azlizard13@yahoo.com

Please give me credit if you use this tab for a video