Login or Register to remove this ad. | Advertise Here

Ezio's Family (Assassins Creed II) Guitar Tab

Submitted: Nov 21, 2010 by A Dead Fly

5
Average: 5 (2 votes)
Download | Listen
Game: Assassins Creed II
Composer(s): Jesper Kyd
Style: 2 or more instruments, Transcription
Series: Assassins Creed

AutoScroll: Slow | Medium | Fast
Artist: Jesper Kyd
Album: Assassin's Creed 2
Song: Ezio's Family
Tabbed by: A Dead Fly

Guitar one - Electric Guitar with distortion (Drop D Tuning)
Guitar two - Acoustic Guitar with steel strings (Standard Tuning)
Guitar three - Acoustic Guitar with Nylon Strings (Standard Tuning)

0:00 - 0:08

Guitar two

e|-10------13-----|-15------17-----|-10------13-----|-15------10-----|
B|----------------|----------------|----------------|----------------|
G|----------------|----------------|----------------|----------------|
D|----------------|----------------|----------------|----------------|
A|----------------|----------------|----------------|----------------|
E|----------------|----------------|----------------|----------------|

Guitar three
                    Start quiet and get louder
e|----------------|----------------|----------------|----------------|
B|----------------|-----3-----3----|-----3-----3----|-----3-----3----|
G|----------------|---------2---2--|---------2---2--|---------2---2--|
D|----------------|---0---3-------3|---0---3-------3|---0---3-------3|
A|----------------|----------------|----------------|----------------|
E|----------------|----------------|----------------|----------------|

0:08 - 0:23

Guitar one (light distortion)
Start silent and increase to full volume within first few bars and
add random slides
e|----------------|----------------|----------------|----------------|
B|---------6------|--8-----10------|--------6-------|-8-------6------|
G|-7--------------|----------------|-7--------------|----------------| Play
D|----------------|----------------|----------------|----------------| Two
A|----------------|----------------|----------------|----------------| Times
D|----------------|----------------|----------------|----------------|

Guitar two
Add random slides
e|----------------|----------------|----------------|----------------|
B|---------10-----|--8-----10------|--------10------|-8-------6------|
G|-7--------------|----------------|-7--------------|----------------| Play
D|----------------|----------------|----------------|----------------| Two
A|----------------|----------------|----------------|----------------| Times
E|----------------|----------------|----------------|----------------|

Guitar three
       
e|----------------|----------------|----------------|----------------|
B|-----3-----3----|-----3-----3----|-----3-----3----|-----3-----3----|
G|---------2---2--|---------2---2--|---------2---2--|---------2---2--| Play
D|---0---3-------3|---0---3-------3|---0---3-------3|---0---3-------3| two
A|----------------|----------------|----------------|----------------| times
E|----------------|----------------|----------------|----------------|

0:23 - 0:53

Guitar one (light to no distortion)
Add random slides
e|----------------|----------------|----------------|----------------|
B|---------6------|--8-----10------|--------6-------|-8-------6------|
G|-7--------------|----------------|-7--------------|----------------| Play
D|----------------|----------------|----------------|----------------| Four
A|----------------|----------------|----------------|----------------| Times
D|----------------|----------------|----------------|----------------|

Guitar two

e|-1--1-1---1--1--|--1---1-1-1-1---|-1--1-1---1--1--|--1---1-1-1-1---|
B|-3--3-2---3--3--|--3---3-3-3-3---|-3--3-3---3--3--|--3---3-3-3-3---|
G|-2--2-2---2--2--|--2---2-2-2-2---|-0--0-0---0--0--|--0---0-0-0-0---|
D|-0--0-0---0--0--|--0---0-0-0-0---|-0--0-0---0--0--|--0---2-2-0-0---|
A|----------------|----------------|-3--3-3---3--3--|--3---3-3-3-3---|
E|----------------|----------------|----------------|----------------|

e|-1--1-1---1--1--|--1---3-3-3-3---|-1--1-1---1--1--|3-3-3-3-1-1-1-1-|
B|-3--3-2---3--3--|--3---3-3-3-3---|-3--3-3---3--3--|3-3-3-3-3-3-3-3-| Play
G|-2--2-2---2--2--|--2---2-2-2-2---|-2--2-2---2--2--|2-2-2-2-2-2-2-2-| these
D|-3--3-3---3--3--|--3---3-3-3-3---|-0--0-0---0--0--|0-0-0-2-2-0-0-0-| twice
A|-1--1-1---1--1--|--1-------------|----------------|----------------|
E|----------------|----------------|----------------|----------------|

Guitar three

e|----------------|----------------|----------------|----------------|
B|----------------|----------------|----------------|----------------|
G|--------7-------|----------------|----------------|----------------|
D|-7------7-------|--------7-------|-5--------------|--------5-------|
A|-5--------------|----------------|-3--------------|----------------|
E|----------------|----------------|----------------|----------------|

e|----------------|----------------|----------------|----------------|
B|----------------|----------------|----------------|----------------|
G|--------3-------|----------------|---------7------|----------------| Play
D|-3------3-------|--------3-------|-7-------7------|----------------| These
A|-1--------------|----------------|-5--------------|----------------| Twice
E|----------------|----------------|----------------|-1------0-------|

0:53 - 1:06

Guitar One (little or no distortion)

e|----------------|----------------|----------------|----------------|
B|---------6------|--8-----10------|--------6-------|-8-------6------|
G|-7--------------|----------------|-7--------------|----------------|
D|----------------|----------------|----------------|----------------|
A|----------------|----------------|----------------|----------------|
D|----------------|----------------|----------------|----------------|

e|----------------|----------------|-10-----12------|-13------15-----|
B|---------6------|--8-----10------|----------------|----------------|
G|-7--------------|----------------|----------------|----------------|
D|----------------|----------------|----------------|----------------| 
A|----------------|----------------|----------------|----------------| 
D|----------------|----------------|----------------|----------------|

Guitar two

e|-1--1-1---1--1--|--1---1-1-1-1---|-1--1-1---1--1--|--1---1-1-1-1---|
B|-3--3-2---3--3--|--3---3-3-3-3---|-3--3-3---3--3--|--3---3-3-3-3---|
G|-2--2-2---2--2--|--2---2-2-2-2---|-0--0-0---0--0--|--0---0-0-0-0---|
D|-0--0-0---0--0--|--0---0-0-0-0---|-0--0-0---0--0--|--0---2-2-0-0---|
A|----------------|----------------|-3--3-3---3--3--|--3---3-3-3-3---|
E|----------------|----------------|----------------|----------------|

e|-1--1-1---1--1--|--1---3-3-3-3---|-1--1-1---1--1--|3-3-3-3-1-1-1-1-|
B|-3--3-2---3--3--|--3---3-3-3-3---|-3--3-3---3--3--|3-3-3-3-3-3-3-3-|
G|-2--2-2---2--2--|--2---2-2-2-2---|-2--2-2---2--2--|2-2-2-2-2-2-2-2-|
D|-3--3-3---3--3--|--3---3-3-3-3---|-0--0-0---0--0--|0-0-0-2-2-0-0-0-|
A|-1--1-1---1--1--|--1-------------|----------------|----------------|
E|----------------|----------------|----------------|----------------|

Guitar three (play this one octvave down if these frets are too high)

e|-10--12--13--10-|-15--12--10--8--|-10--12--13--10-|-15--12--10--12-|
B|----------------|----------------|----------------|----------------|
G|----------------|----------------|----------------|----------------|
D|----------------|----------------|----------------|----------------|
A|----------------|----------------|----------------|----------------|
E|----------------|----------------|----------------|----------------|

e|-10--12--13--10-|-15--12--10--8--|-10--12--13--10-|-15--12--17--13-|
B|----------------|----------------|----------------|----------------|
G|----------------|----------------|----------------|----------------|
D|----------------|----------------|----------------|----------------|
A|----------------|----------------|----------------|----------------|
E|----------------|----------------|----------------|----------------|

1:06 - 1:39

Guitar one (Little or no distortion)

e|-17-------------|-10-------------|----------------|----------------|
B|---------10-----|------------10--|--------10------|-11---------10--|
G|----------------|----------------|----------------|----------------|
D|----------------|----------------|----------------|----------------|
A|----------------|----------------|----------------|----------------|
D|----------------|----------------|----------------|----------------|

e|----------------|----------------|----------------|----------------|
B|---------8------|-10---------8---|--------10------|---------8------|
G|----------------|----------------|----------------|-----10------9--|
D|----------------|----------------|----------------|----------------|
A|----------------|----------------|----------------|----------------|
D|----------------|----------------|----------------|----------------|

e|----------------|----------------|----------------|--10------------|
B|---------10-----|-11---------10--|--------10------|------------10--|
G|----------------|----------------|----------------|----------------|
D|----------------|----------------|----------------|----------------|
A|----------------|----------------|----------------|----------------|
D|----------------|----------------|----------------|----------------|

e|----------------|-13---------10--|--------10------|----------------|
B|---------11-----|----------------|----------------|-10-------------|
G|----------------|----------------|----------------|---------10--9--|
D|----------------|----------------|----------------|----------------|
A|----------------|----------------|----------------|----------------|
D|----------------|----------------|----------------|----------------|

Guitar two

e|-1--1-1---1--1--|--1---1-1-1-1---|-1--1-1---1--1--|--1---1-1-1-1---|
B|-3--3-2---3--3--|--3---3-3-3-3---|-3--3-3---3--3--|--3---3-3-3-3---|
G|-2--2-2---2--2--|--2---2-2-2-2---|-0--0-0---0--0--|--0---0-0-0-0---|
D|-0--0-0---0--0--|--0---0-0-0-0---|-0--0-0---0--0--|--0---2-2-0-0---|
A|----------------|----------------|-3--3-3---3--3--|--3---3-3-3-3---|
E|----------------|----------------|----------------|----------------|

e|-1--1-1---1--1--|--1---3-3-3-3---|-1--1-1---1--1--|3-3-3-3-1-1-1-1-|
B|-3--3-2---3--3--|--3---3-3-3-3---|-3--3-3---3--3--|3-3-3-3-3-3-3-3-| Play
G|-2--2-2---2--2--|--2---2-2-2-2---|-2--2-2---2--2--|2-2-2-2-2-2-2-2-| these
D|-3--3-3---3--3--|--3---3-3-3-3---|-0--0-0---0--0--|0-0-0-2-2-0-0-0-| twice
A|-1--1-1---1--1--|--1-------------|----------------|----------------|
E|----------------|----------------|----------------|----------------|

Guitar three

e|----------------|----------------|----------------|----------------|
B|----------------|----------------|----------------|----------------|
G|--------7-------|----------------|----------------|----------------|
D|-7------7-------|--------7-------|-5--------------|--------5-------|
A|-5--------------|----------------|-3--------------|----------------|
E|----------------|----------------|----------------|----------------|

e|----------------|----------------|----------------|----------------|
B|----------------|----------------|----------------|----------------|
G|--------3-------|----------------|---------7------|----------------| Play
D|-3------3-------|--------3-------|-7-------7------|----------------| These
A|-1--------------|----------------|-5--------------|----------------| Twice
E|----------------|----------------|----------------|-1------0-------|

1:39 - 2:05

Guitar two

e|---1-------1----|---1-------1----|---1-------1----|---1-------1----|
B|-----3-------3--|-----3-------3--|-----3-------3--|-----3-------3--|
G|-------2-------2|-------2-------2|-------2-------2|-------2-------2| Play
D|-0-------0------|-0-------0------|-0-------0------|-0-------0------| this
A|----------------|----------------|----------------|----------------| 3.5
E|----------------|----------------|----------------|----------------| times

Guitar three (add random slides)

e|----------------|----------------|----------------|----------------|
B|---------6------|--8-----10------|--------6-------|-8-------6------| Play
G|-7--------------|----------------|-7--------------|----------------| 3.5
D|----------------|----------------|----------------|----------------| times
A|----------------|----------------|----------------|----------------| 
E|----------------|----------------|----------------|----------------|

2:05 - 2:21

Guitar one (play this with no distortion quietly)

e|-10-----13------|-15------17-----|-10-----13------|-15-----14------|
B|----------------|----------------|----------------|----------------| Play
G|----------------|----------------|----------------|----------------| Twice
D|----------------|----------------|----------------|----------------|
A|----------------|----------------|----------------|----------------|
D|----------------|----------------|----------------|----------------|

Guitar two 

e|---1-------1----|---1-------1----|---1-------1----|---1-------1----|
B|-----3-------3--|-----3-------3--|-----3-------3--|-----3-------3--|
G|-------2-------2|-------2-------2|-------2-------2|-------2-------2| Play
D|-0-------0------|-0-------0------|-0-------0------|-0-------0------| this
A|----------------|----------------|----------------|----------------| twice
E|----------------|----------------|----------------|----------------|

Guitar three

e|----------------|----------------|----------------|----------------|
B|-----3-----3----|-----3-----3----|-----3-----3----|-----3-----3----|
G|---------2---2--|---------2---2--|---------2---2--|---------2---2--| Play
D|---0---3-------3|---0---3-------3|---0---3-------3|---0---3-------3| two
A|----------------|----------------|----------------|----------------| times
E|----------------|----------------|----------------|----------------|

2:21 - 2:44

Guitar one (play this with no distortion quietly)

e|-10-----13------|-15------17-----|-10-----13------|-15-----14------|
B|----------------|----------------|----------------|----------------| Play
G|----------------|----------------|----------------|----------------| three
D|----------------|----------------|----------------|----------------| times
A|----------------|----------------|----------------|----------------|
D|----------------|----------------|----------------|----------------|

Guitar two 

Add random slides
e|----------------|----------------|----------------|----------------|
B|---------6------|--8-----10------|--------6-------|-8-------6------|
G|-7--------------|----------------|-7--------------|----------------| Play
D|----------------|----------------|----------------|----------------| three
A|----------------|----------------|----------------|----------------| Times
E|----------------|----------------|----------------|----------------|

Guitar three

e|----------------|----------------|----------------|----------------|
B|-----3-----3----|-----3-----3----|-----3-----3----|-----3-----3----|
G|---------2---2--|---------2---2--|---------2---2--|---------2---2--| Play
D|---0---3-------3|---0---3-------3|---0---3-------3|---0---3-------3| three
A|----------------|----------------|----------------|----------------| times
E|----------------|----------------|----------------|----------------|

2:44 - 3:07

Guitar one (Loud Distortion)

e|----------------|----------------|----------------|----------------|
B|----------------|----------------|----------------|----------------|
G|-3--------------|----------------|----------------|----------------|
D|-3--------------|----------------|-5--------------|----------------|
A|-1--------------|----------------|-5--------------|----------------|
D|----------------|----------------|-5--------------|----------------|

e|----------------|----------------|----------------|----------------|
B|----------------|----------------|----------------|----------------|
G|----------------|----------------|----------------|----------------|
D|-0--------------|----------------|----------------|----------------|
A|-0--------------|----------------|----------------|----------------|
D|-0--------------|----------------|----------------|----------------|

Rest through the remainder of the time interval

Guitar two

e|----------------|----------------|-10-----12------|-13------15-----|
B|---------6------|--8-----10------|----------------|----------------|
G|-7--------------|----------------|----------------|----------------| Play
D|----------------|----------------|----------------|----------------| Once
A|----------------|----------------|----------------|----------------| 
E|----------------|----------------|----------------|----------------|

e|----------------|----------------|----------------|----------------|
B|---------6------|--8-----10------|--------6-------|-8-------6------|
G|-7--------------|----------------|-7--------------|----------------| Play
D|----------------|----------------|----------------|----------------| Twice
A|----------------|----------------|----------------|----------------|
E|----------------|----------------|----------------|----------------|

Guitar three

e|----------------|----------------|----------------|----------------|
B|-----3-----3----|-----3-----3----|-----3-----3----|-----3-----3----|
G|---------2---2--|---------2---2--|---------2---2--|---------2---2--| Play
D|---0---3-------3|---0---3-------3|---0---3-------3|---0---3-------3| three
A|----------------|----------------|----------------|----------------| times
E|----------------|----------------|----------------|----------------|

3:07 - 3:37

Guitar one (Loud Distortion, but quieter volume)

e|----------------|----------------|----------------|----------------|
B|----------------|----------------|----------------|----------------|
G|-7--------------|----------------|-5--------------|----------------|
D|-5--------------|----------------|-5--------------|----------------|
A|-5--------------|----------------|-3--------------|----------------|
D|----------------|----------------|----------------|----------------|

e|----------------|----------------|----------------|----------------|
B|----------------|----------------|----------------|----------------|
G|-3--------------|----------------|----------------|----------------|
D|-3--------------|----------------|-0--------------|----------------|
A|-1--------------|----------------|-0--------------|----------------|
D|----------------|----------------|-0--------------|----------------|

e|----------------|----------------|----------------|----------------|
B|----------------|----------------|----------------|----------------|
G|-7--------------|----------------|-5--------------|----------------|
D|-5--------------|----------------|-5--------------|----------------|
A|-5--------------|----------------|-3--------------|----------------|
D|----------------|----------------|----------------|----------------|

e|----------------|----------------|----------------|----------------|
B|----------------|----------------|----------------|----------------|
G|-3--------------|----------------|-2--------------|----------------|
D|-3--------------|----------------|-2--------------|----------------|
A|-1--------------|----------------|-0--------------|----------------|
D|----------------|----------------|----------------|----------------|

Guitar two and Guitar three

e|----------------|----------------|----------------|----------------|
B|---------6------|--8-----10------|--------6-------|-8-------6------|
G|-7--------------|----------------|-7--------------|----------------| Play
D|----------------|----------------|----------------|----------------| Four
A|----------------|----------------|----------------|----------------| Times
E|----------------|----------------|----------------|----------------|

3:37 - End

Guitar two only

Play this until volume fades to zero
e|----------------|----------------|----------------|----------------|
B|---------6------|--8-----10------|--------6-------|-8-------6------|
G|-7--------------|----------------|-7--------------|----------------|
D|----------------|----------------|----------------|----------------| 
A|----------------|----------------|----------------|----------------|
E|----------------|----------------|----------------|----------------|

See my guitar pro file for the more detailed stuff

Email me at azlizard13@yahoo.com

Please give me credit if you use this tab for a video