Login or Register to remove this ad. | Advertise Here

City of Jerusalem (Assasins Creed) Guitar Tab

Submitted: Dec 19, 2010 by A Dead Fly

5
Average: 5 (1 vote)
Download | Listen
Game: Assasins Creed
Composer(s): Jesper Kyd
Style: 2 or more instruments, Transcription
Series: Assassins Creed

AutoScroll: Slow | Medium | Fast
Artist: Jesper Kyd
Album: Assassin's Creed
Song: City of Jerusalem
Tabbed by: A Dead Fly

Transcribed for 2 guitars with standard tuning, preferably
one acoustic (guitar one) and one electric (guitar two).

Intro (both guitars)
   Am                  G#                        Am      
e|-5--------------|----4-----------|-------------5--|----------------|
B|-5--------------|----4-----------|-------------5--|----------------|
G|-5--------------|----5-----------|-------------5--|----------------|
D|-7--------------|----6-----------|-------------7--|----------------|
A|-7--------------|----6-----------|-------------7--|----------------|
E|-5--------------|----4-----------|-------------5--|----------------|

0:08 - 0:32

Guitar One

e|--8-------------|----------------|----------------|------7---8-----|
B|5----6-5---6--5-|--10-----8-6-5--|-----6-5--6--5--|---6------8-----|
G|--5-------------|----------------|----------------|----------5-----|
D|--7-------------|-----7----------|-7--------------|-7--------------|
A|----------------|----------------|----------------|----------------|
E|----------------|----------------|----------------|----------------|

e|----------------|----------------|----------------|----------------|
B|-10---6-5--6--5-|--10-----8-6-5--|-10---6-5--6--5-|--10-----8-6-5--|
G|----------------|----------------|----------------|----------------|
D|-7--------------|-----7----------|--7-------------|-----7----------|
A|----------------|----------------|----------------|----------------|
E|----------------|----------------|----------------|----------------|

e|----------------|----------------|----------------|-----7----7-----|
B|-10---6-5--6--5-|--10-----8-6-5--|-10---6-5--6--5-|--10---10---8---|
G|----------------|----------------|----------------|--------------9-|
D|-7--------------|-----7----------|--7-------------|-7--------------|
A|----------------|----------------|----------------|----------------|
E|----------------|----------------|----------------|----------------|

Guitar Two

Silent the first four bars of guitar one

e|-12-------------|-----10--12--15p|13--12----------|----------------|
B|----------------|----------------|----------------|----------------|
G|----------------|----------------|----------------|----------------|
D|----------------|----------------|----------------|----------------|
A|----------------|----------------|----------------|----------------|
E|----------------|----------------|----------------|----------------|

e|-17<<<------19--|-20---------22--|------------22--|-20-------------|
B|----------------|----------------|----------------|------------20--|
G|----------------|----------------|-21-------------|----------------|
D|----------------|----------------|----------------|----------------|
A|----------------|----------------|----------------|----------------|
E|----------------|----------------|----------------|----------------|

0:32 - 1:20

Guitar One

e|----------------|----------------|----------------|----------------|
B|-10---6-5--6--5-|--10-----8-6-5--|-10---6-5--6--5-|--10-----8-6-5--|
G|----------------|----------------|----------------|----------------|
D|-7--------------|-----7----------|--7-------------|-----7----------|
A|----------------|----------------|----------------|----------------|
E|----------------|----------------|----------------|----------------|

Plays this 6 times

Guitar Two

e|----------------|----------------|----------------|----------------|
B|----------------|----------------|----------------|----------------|
G|----------------|----------------|----------------|----------------|
D|-7/-------------|-----------/10--|--7-------------|(7)-------------|
A|-7/-------------|-----------/10--|--5-------------|(5)-------------|
E|-5/-------------|-----------//8--|--5-------------|(5)-------------|

e|----------------|----------------|----------------|----------------|
B|----------------|----------------|----------------|----------------|
G|----------------|----------------|----------------|----------------|
D|-7------10------|---------12-----|-15-------------|(15)------------|
A|-7------10------|---------12-----|-13-------------|(15)------------|
E|-5-------8------|---------10-----|-13-------------|(13)------------|

e|-12-------------|-15-----12------|----------------|----------------|
B|----------------|----------------|-13-------------|--------12------|
G|----------------|----------------|----------------|----------------|
D|----------------|----------------|----------------|----------------|
A|----------------|----------------|----------------|----------------|
E|----------------|----------------|----------------|----------------|

e|----------------|-15----12----17-|20----------19--|--19v-----------|
B|-15-------------|----------------|----------------|----------------|
G|----------------|----------------|----------------|----------------|
D|----------------|----------------|----------------|----------------|
A|----------------|----------------|----------------|----------------|
E|----------------|----------------|----------------|----------------|

e|-------------20-|-22--20--20v----|-----17---------|----------------|
B|-13-------------|----------------|----------------|----------------|
G|----------------|----------------|----------------|----------------|
D|----------------|----------------|----------------|----------------|
A|----------------|----------------|----------------|----------------|
E|----------------|----------------|----------------|----------------|

e|----------------|----------------|----------------|----------------|
B|----17----15-13-|-----15---------|--------17v-----|----------------|
G|----------------|----------------|----------------|----------------|
D|----------------|----------------|----------------|----------------|
A|----------------|----------------|----------------|----------------|
E|----------------|----------------|----------------|----------------|

1:20 - 1:36

Guitar One 
(silent except for this fill that comes in the middle, listen
for timing)

e|------------------------|----------------|
B|------------------------|----------------|
G|-5--4-------------------|----------------|
D|-------5--7-------------|----------------|
A|-------------8-7-5-7---5|---3------------|
E|---------------------8--|-7---5---5---5--|

Guitar Two

Very quietly tremolo pick this note, or just hit it once and hold it with
vibrato the entire time

e|----------------|
B|----------------|
G|--5-------------|
D|----------------|
A|----------------|
E|----------------|

1:36 - 2:24

Guitar One

e|----------------|----------------|----------------|----------------|
B|-10---6-5--6--5-|--10-----8-6-5--|-10---6-5--6--5-|--10-----8-6-5--|
G|----------------|----------------|----------------|----------------|
D|-7--------------|-----7----------|--7-------------|-----7----------|
A|----------------|----------------|----------------|----------------|
E|----------------|----------------|----------------|----------------|

Plays this 6 times

Guitar Two

For this part either you can continue following the synthesizers and flute
or you can play all the random fills that come in, I will post them both
the random fill ones have a random timing though so you have to listen
harder

Synthesizers/flute part (silent for first 5 bars or so of guitar one)

e|---15--17-19----|20----19v-------|-17-------------|----------------|
B|----------------|----------------|----------------|-10-------------|
G|----------------|----------------|----------------|----------------|
D|----------------|----------------|----------------|----------------|
A|----------------|----------------|----------------|----------------|
E|----------------|----------------|----------------|----------------|

e|----------------|----------------|----------------|-10-------------|
B|----------------|-10-------------|----------------|----------------|
G|----------------|----------------|----------------|----------------|
D|----------------|----------------|----------------|----------------|
A|----------------|----------------|----------------|----------------|
E|----------------|----------------|----------------|----------------|

e|----------------|-12-------------|----------------|----------------|
B|----------------|----------------|----------------|-10-------------|
G|----------------|----------------|----------------|----------------|
D|----------------|----------------|----------------|----------------|
A|----------------|----------------|----------------|----------------|
E|----------------|----------------|----------------|----------------|

e|----------------|----------------|----------------|-10-------------|
B|----------------|-10-------------|----------------|----------------|
G|----------------|----------------|----------------|----------------|
D|----------------|----------------|----------------|----------------|
A|----------------|----------------|----------------|----------------|
E|----------------|----------------|----------------|----------------|

e|----------------|-12-------------|----------------|
B|----------------|----------------|----------------|
G|----------------|----------------|----------------|
D|----------------|----------------|----------------|
A|----------------|----------------|----------------|
E|----------------|----------------|----------------|

Random fills part - listen for where each of them go

e|----------------|
B|----------------|
G|----------------|
D|----------------| Fill One
A|-0--2--3--------|
E|----------------|

e|----------------|----------------|----------------|----------------|
B|----------------|----------------|----------------|----------------|
G|---------7---7--|-7---7----------|-5--5--5-5--5-5-|-4--4--4--4-----|
D|----------------|----------------|----------------|----------------|
A|----------------|----------------|----------------|----------------|
E|----------------|----------------|----------------|----------------|

e|----------------|----------------|
B|----------------|----------------|
G|------2-2-2-----|-2----2----2----|
D|----------------|----------------| Fill Two
A|----------------|----------------|
E|----------------|----------------|

e|----------------|----------------|----------------|
B|----------------|----------------|----------------|
G|----------------|---2-4---4--2---|----------------|
D|-----------2--3-|-5------------5-|-3--2-----------| Fill Three
A|----------------|----------------|----------------|
E|----------------|----------------|----------------|

2:24 - 2:40

(Guitars play the same thing only in different octaves)

Guitar One

e|----------------|
B|----------------|
G|----------------| Plays this note as a precursor
D|-------------17-|
A|----------------|
E|----------------|

e|-------20-19----|-------19-17----|-------17-15-------|
B|----17----------|----17----------|----17---------18--|
G|-14-------------|-14-------------|-14----------------|
D|----------------|----------------|-------------------|
A|----------------|----------------|-------------------|
E|----------------|----------------|-------------------|
             
                 * Bend to this note or omit it if it's too high
e|--------19h20h24-22-20-|-------20-19------|-------19-17------|
B|-17--18----------------|----17--------20--|----17--------17--|
G|-----------------------|-14---------------|-14---------------|
D|-----------------------|------------------|------------------|
A|-----------------------|------------------|------------------|
E|-----------------------|------------------|------------------|

e|-------15-------------|------------------|
B|----17----18--17--15--|-15--13-15--13-12-|
G|-14-------------------|-14---------------|
D|----------------------|------------------|
A|----------------------|------------------|
E|----------------------|------------------|

Guitar Two

e|----------------|
B|----------------|
G|-------------5--| Plays this note as a precursor
D|----------------|
A|----------------|
E|----------------|

e|-----8-7--------|-----7-5--------|-----5----------|------7h8h12-10-8|
B|---5------------|---5------------|---5---8---6----|5--6-------------|
G|----------------|----------------|----------------|-----------------|
D|-7--------------|-7--------------|-7--------------|-----------------|
A|----------------|----------------|----------------|-----------------|
E|----------------|----------------|----------------|-----------------|

e|-----8-7--------|-----7-5--------|----------------|----------------|
B|---5-------8----|---5-------5----|---5-8-6---5--3-|-3---1-3---1-0--|
G|----------------|----------------|----------------|-2--------------|
D|-7--------------|-7--------------|-7--------------|----------------|
A|----------------|----------------|----------------|----------------|
E|----------------|----------------|----------------|----------------|

2:40 - 2:56

Quiet except for this one fill which can be played by either guitar:

e|------------------------|----------------|
B|------------------------|----------------|
G|------------------------|----------------|
D|-2--2--2--2--0--2--3--3-|-3--3-----------|
A|------------------------|----------------|
E|------------------------|----------------|

2:56 - End

Guitar One

Quiet until the chorus comes in and plays the beggining chords again:

   Am                  G#                        Am      
e|-5--------------|----4-----------|-------------5--|----------------|
B|-5--------------|----4-----------|-------------5--|----------------|
G|-5--------------|----5-----------|-------------5--|----------------|
D|-7--------------|----6-----------|-------------7--|----------------|
A|-7--------------|----6-----------|-------------7--|----------------|
E|-5--------------|----4-----------|-------------5--|----------------|

Guitar Two

e|-20----22-------|-20-------------|----------------|---------22-----|
B|----------------|----------------|----------------|----------------|
G|----------------|----------------|----------------|----------------|
D|----------------|----------------|----------------|----------------|
A|----------------|----------------|----------------|----------------|

e|--24------------|
B|----------------| Hold this note until the end, bend to it or play
G|----------------| it an octave down if it's too high
D|----------------|
A|----------------|
E|----------------|

Email questions to azlizard13@yahoo.com
See my guitar pro file for more detailed stuff!
Please give me credit if you use this tab for a video