Login or Register to remove this ad. | Advertise Here

Youkoso! Hitori Bocchi (Welcome to N.H.K.) Guitar Tab

Submitted: Mar 04, 2008 by Kabukibear (Last updated: Nov 27, 2009)

5
Average: 5 (4 votes)
Download | Listen
Game: Welcome to N.H.K.
Composer(s): Pearl Kyoudai
Style: 2 or more instruments, Fingerstyle, Transcription

AutoScroll: Slow | Medium | Fast
Youkoso! Hitori Bocchi                              
~Welcome to N.H.K.~
Compsed by: Pearl Kyoudai
Transcribed by: Justin Lincoln

*note*
The PDF file included with this tab is much clearer as to what
chords are played and when to play them. Be sure to download it
and check it out. Also, the strumming pattern on the guitar part
is just a suggestion. I didn't feel like writing every strum
that was played but I did write the basic patterns used. Listen
to the mp3. I found the lyrics online and don't know if they are
completely accurate. If you have corrections, contact me.

Vocals

     W                   W                   W                 
E||-------------------|-------------------|-------------------|
B||-------------------|-------------------|-------------------|
G||-------------------|-------------------|-------------------|
D||-------------------|-------------------|-------------------|
A||-------------------|-------------------|-------------------|
E||-------------------|-------------------|-------------------|


                               Yu- me no TEN- TO  
  W                     Q.     E   E  E  E    E   
--------------------||---------------------------|
--------------------||---------------------------|
-------------------*||-------------0-----0-------|
-------------------*||----------------2-------2--|
--------------------||---------2-----------------|
--------------------||---------------------------|


  u- ra-    gae-    su you ni-                                           
  E  E   E  E    E  E  E   E      Q    H.              W                 
-------------------------------|--------------------|-------------------|
-------------------------------|--------------------|-------------------|
--0--2---L---------------------|--------------------|-------------------|
-----------------------0---2---|--L-----------------|-------------------|
------------3----L--3----------|--------------------|-------------------|
-------------------------------|--------------------|-------------------|


         Shi- a- wa- se na ji-    ka- n     mo-    you wo    
              |---3--|                                       
  Q.     E    E  E   E  E  E      E   E  E  E   E  E   Q     
-------------------------------|----------------------------|
--------------0--0---0--0--1---|--0-------------------------|
-------------------------------|------2--L--0---L-----------|
-------------------------------|----------------------------|
---------2---------------------|-------------------3---3----|
-------------------------------|----------------------------|


     ji- mi ni ka- e-    te-                                Ka- mi ga kuchi te  
  E  E   E  E  E   E  E  E      H        H           Q.     E   E  E  E     E   
-----------------------------|--------------------|----------------------------|
-----------------------------|--------------------|----------------------------|
-----------------------------|--------------------|-------------0-----0--------|
-------------------0--L--2---|--L-----------------|----------------2--------2--|
-----3---3--0--3-------------|--------------------|---------2------------------|
-----------------------------|--------------------|----------------------------|


  ki- ba-    mu    no to o-    naj- i-                                     
  E   E   E  E  E  E  E  E     E    E  E  E  H           W                 
----------------------------|-------------------------|-------------------|
----------------------------|-------------------------|-------------------|
--0---2---L-----------------|-------------------------|-------------------|
----------------------------|--0----2--L--------------|-------------------|
-------------3--L--0--3--0--|-------------------------|-------------------|
----------------------------|-------------------------|-------------------|


       Bo- ku no ko- to- ba       wa-                 
  Q    E   E  E  E   E   E     E  E   E  E  H         
----------------------------|------------------------|
----------------------------|------------------------|
-------0------0------0---2--|--L---------------------|
-----------2-----2----------|------------------------|
----------------------------|-----3---L--------------|
----------------------------|------------------------|


       MA- SHIN    no    na-    ka de    ko- o- r- u                         
  Q    E   E    E  E  E  E      E  E  E  E   E  E  Q       W                 
-----------------------------|--------------------------|-------------------|
-----------------------------|--------------------------|-------------------|
-------0-----------------0---|--0------------0--0--0----|--L----------------|
-----------4----L--2--L------|-----2-----2--------------|-------------------|
-----------------------------|--------------------------|-------------------|
-----------------------------|--------------------------|-------------------|


                      Knock Knock Knock mu- go-    n  no ku- u- ka- n  wo da-  
  W                   Q     Q     Q     E   E      E  E  E   E  E   E  E  E    
-------------------|----------------------------|-----------------------------|
-------------------|----------------------------|-----------------------------|
-------------------|--0-----0-----0-------------|-----------------------------|
-------------------|----------------------------|-----------------------------|
-------------------|--------------------3---0---|--3--0--3---0--3---0--3--0---|
-------------------|----------------------------|-----------------------------|


  i- te-            Ka- be    wo ta- ta- i  te wa mo ga-  
  E  E   E  E  Q    E   E     E  E   E   E  E  E  E  E    
---------------------------|-----------------------------|
---------------------------|-----------------------------|
---------------------------|-----------------------------|
--0--2---L-----------------|-----------------------------|
--------------------3---3--|--3--3---3---3--3--0--3--0---|
---------------------------|-----------------------------|


  ku   yo-            Dai-    jin na SE- RI- FU na- ni- mo  
  E    E  Q    Q      Q       E   E  E   E   E  E   E   E   
---------------------------|-------------------------------|
---------------------------|-------------------------------|
---------------------------|-------------------------------|
---------------------------|-------------------------------|
--5--3g5--L---------3g5----|--5---5--5---5---5--3---7---7--|
---------------------------|-------------------------------|


  i- e- na- i  ma- ma                              Knock Knock Knock ma- k-  
  E  E  E   E  E   E  E  E     W                   Q     Q     Q     E   E   
----------------------------|-------------------|---------------------------|
----------------------------|-------------------|---------------------------|
----------------------------|-------------------|--0-----0-----0------------|
-------------------2--L-----|-------------------|---------------------------|
--3--3--3---0--3------------|-------------------|--------------------3---0--|
----------------------------|-------------------|---------------------------|


  ku- ra ho- shi- zo- ra wo da-    i- te-            Ha- te  
  E   E  E   E    E   E  E  E      E  E   E  E  Q    E   E   
--------------------------------|---------------------------|
--------------------------------|---------------------------|
--------------------------------|--------------------0---0--|
--------------------------------|--0--2---L-----------------|
--3---0--3---0----3---0--3--0---|---------------------------|
--------------------------------|---------------------------|


  no na- i    u- chu- u  he-                                           
  E  E   Q    E  E    E  E      W                   H        H         
-----------------------------|-------------------|--------------------|
--------------1--0-----------|-------------------|--------------------|
--0--0---0------------0------|-------------------|--------------------|
-----------------------------|-------------------|--------------------|
-------------------------3---|--L----------------|--L-----------------|
-----------------------------|-------------------|--------------------|


    Yo-u- ko- so                    hi- to- ri bo- o-    cchi-             
    E  E  E.  E.  E  Q       Q.     E   E   E  E   E     W                 
--------------------------|---------------------------|-------------------|
--------------------------|---------------------------|-------------------|
--------------------------|---------------------------|-------------------|
--2g3--2------------------|---------------------------|-------------------|
----------3---0---L-------|---------0---3---0--3---0--|--3----------------|
--------------------------|---------------------------|-------------------|


         Hi- to- ri bo-     cchi-                                  
  Q.     E   E   E  Q       W                   H        H         
-------------------------|-------------------|--------------------|
-------------------------|-------------------|--------------------|
-------------------------|-------------------|--------------------|
-------------------------|--0----------------|--L-----------------|
---------0---3---0--3----|-------------------|--------------------|
-------------------------|-------------------|--------------------|


                             Hi- to- ri bo-     cchi-             
  W                   Q.     E   E   E  Q       W                 
-------------------|-------------------------|-------------------|
-------------------|-------------------------|-------------------|
-------------------|-------------------------|-------------------|
-------------------|-------------------------|--0----------------|
-------------------|---------0---3---0--3----|-------------------|
-------------------|-------------------------|-------------------|


  H        H           W                   W                 
--------------------|-------------------|-------------------|
--------------------|-------------------|-------------------|
--------------------|-------------------|-------------------|
--L-----------------|-------------------|-------------------|
--------------------|-------------------|-------------------|
--------------------|-------------------|-------------------|


         U- mi no so- ko    ni o-    ri-    te ku ma-  
  Q.     E  E  E  E   E     E  E  E  E   E  E  E  E    
-------------------------|----------------------------|
-------------------------|----------------------------|
------------0-----0------|--0--2--L-------------------|
---------------2------2--|----------------------------|
---------2---------------|-----------3---L--3--3--3---|
-------------------------|----------------------------|


  chi de-                                              Ki- mi no e- ga- o   
                                                                 |---3--|   
  E   E   E  E  H           W                   Q.     E   E  E  E  E   E   
-------------------------|-------------------|-----------------------------|
-------------------------|-------------------|-------------0--0--0--0---1--|
-------------------------|-------------------|-----------------------------|
------2---L--------------|-------------------|-----------------------------|
--5----------------------|-------------------|---------3-------------------|
-------------------------|-------------------|-----------------------------|


  wa mi- dor- i  no ka- ge he               ki- e-    ru-  
  E  E   E    E  E  E   E  E     E  E  Q    E   E  E  E    
------------------------------|---------------------------|
--0---------------------------|---------------------------|
-----2---2----2--0------------|---------------------------|
--------------------2---------|-----------------0--L--2---|
------------------------3--0--|--L----------3-------------|
------------------------------|---------------------------|


                             Ko- u- ka- i  da- ke  
  E  E  H.              Q    E   E  E   E  E   E   
---------------------|----------------------------|
---------------------|----------------------------|
---------------------|-------0------0------0---2--|
--L------------------|-----------2------2---------|
---------------------|----------------------------|
---------------------|----------------------------|


     ga    ha- na- shi ka- ke-    te- ku-    ru-             
  E  E  E  E   E   E   E   E      E   E   E  E   E  E  Q     
-------------------------------|----------------------------|
-------------------------------|----------------------------|
--L----------------------------|----------------------------|
-------------------------------|--0---2---L-----------------|
-----3-----3---3---0---3---0---|-------------3---L----------|
-------------------------------|----------------------------|


                           O- SER- O  no yo- u        ni                 
  W                   Q    E  E    E  E  E   E     E  E  E  E  H         
-------------------|----------------------------|-----------------------|
-------------------|----------------------------|-----------------------|
-------------------|-------0-------0-----0---2--|--L--------------------|
-------------------|----------2-------2---------|-----------------------|
-------------------|----------------------------|-----3--L--------------|
-------------------|----------------------------|-----------------------|


       hi- kar- i  wo    tsu-    bu- shi       na- ga- ra    
  Q    E   E    E  E  E  E       E   E   E  E  E   E   Q     
------------------------------|-----------------------------|
------------------------------|-----------------------------|
-----------0----0-------------|--0-------------0---0---0----|
-------2-----------2--L--2----|------2---L------------------|
------------------------------|-----------------------------|
------------------------------|-----------------------------|


                                          Knock knock knock mu- ge-  
  W                   W                   Q     Q     Q     E   E    
-------------------|-------------------|----------------------------|
-------------------|-------------------|----------------------------|
--L----------------|-------------------|--0-----0-----0-------------|
-------------------|-------------------|----------------------------|
-------------------|-------------------|--------------------3---0---|
-------------------|-------------------|----------------------------|


  n  no sho- u- shi- n  ni a-    fu- re-            Ku- chi  
  E  E  E    E  E    E  E  E     E   E   E  E  Q    E   E    
------------------------------|-----------------------------|
------------------------------|-----------------------------|
------------------------------|-----------------------------|
------------------------------|--0---2---L------------------|
--3--0--3----0--3----0--3--0--|---------------------3---0---|
------------------------------|-----------------------------|


  mo mi- mi mo me mo ko- u-    zu-   i-             Ki-ri-  
  E  E   E  E  E  E  E   E     E     E  Q    Q      E  E    
----------------------------|------------------------------|
----------------------------|------------------------------|
----------------------------|------------------------------|
----------------------------|------------------------------|
--3--0---3--0--3--0--3---0--|--5---3g5--L---------3g5--5---|
----------------------------|------------------------------|


  na- i  ME- D- IA no- u  ni    su- i- ko- n- de wa                            
  E   E  E   E  E  E   E  E     E   E  E   E  E  E  E  E     W                 
-----------------------------|----------------------------|-------------------|
-----------------------------|----------------------------|-------------------|
-----------------------------|----------------------------|-------------------|
-----------------------------|-------------------2--L-----|-------------------|
--5---5--5---5--5--3---7--7--|--3---3--3---0--3-----------|-------------------|
-----------------------------|----------------------------|-------------------|


  Knock knock knock na- ku-    shi- ta ju- u- ryo- ku no se-  
  Q     Q     Q     E   E      E    E  E   E  E    E  E  E    
----------------------------|--------------------------------|
----------------------------|--------------------------------|
--0-----0-----0-------------|--------------------------------|
----------------------------|--------------------------------|
--------------------3---0---|--3----0--3---0--3----0--3--0---|
----------------------------|--------------------------------|


  i  de-            U- ka-    bi da- shi- ta DE- KU- NO- BOU-  
  E  E   E  E  Q    E  E      E  E   E    E  E   E   E   E     
---------------------------|----------------------------------|
---------------------------|-----------------1---0------------|
--------------------0--0---|--0--0---0----0----------0--------|
--0--2---L-----------------|----------------------------------|
---------------------------|-----------------------------3----|
---------------------------|----------------------------------|


                                             Yo-u- ko- so           
  W                   H        H             E  E  E.  E.  E  Q     
-------------------|--------------------|--------------------------|
-------------------|--------------------|--------------------------|
-------------------|--------------------|--------------------------|
-------------------|--------------------|--2g3--2------------------|
--L----------------|--L-----------------|----------3---0---L-------|
-------------------|--------------------|--------------------------|


         hi- to- ri bo- o-    cchi-                      Hi- to- ri bo-   
  Q.     E   E   E  E   E     W                   Q.     E   E   E  Q     
---------------------------|-------------------|-------------------------|
---------------------------|-------------------|-------------------------|
---------------------------|-------------------|-------------------------|
---------------------------|-------------------|-------------------------|
---------0---3---0--3---0--|--3----------------|---------0---3---0--3----|
---------------------------|-------------------|-------------------------|


  cchi-                                                     
  W                   W                   W                 
-------------------|-------------------|-------------------|
-------------------|-------------------|-------------------|
-------------------|-------------------|-------------------|
--0----------------|--L----------------|-------------------|
-------------------|-------------------|-------------------|
-------------------|-------------------|-------------------|


         Hi- to- ri bo-     cchi-                                 
  Q.     E   E   E  Q       W                   W                 
-------------------------|-------------------|-------------------|
-------------------------|-------------------|-------------------|
-------------------------|-------------------|-------------------|
-------------------------|--0----------------|--L----------------|
---------0---3---0--3----|-------------------|-------------------|
-------------------------|-------------------|-------------------|


                             Hi- to- ri bo-     cchi-             
  W                   Q.     E   E   E  Q       W                 
-------------------|-------------------------|-------------------|
-------------------|-------------------------|-------------------|
-------------------|-------------------------|-------------------|
-------------------|-------------------------|--0----------------|
-------------------|---------0---3---0--3----|-------------------|
-------------------|-------------------------|-------------------|


                                                 Hi- to- ri bo-   
  W                   W                   Q.     E   E   E  Q     
-------------------|-------------------|-------------------------|
-------------------|-------------------|-------------------------|
-------------------|-------------------|-------------------------|
--L----------------|-------------------|-------------------------|
-------------------|-------------------|---------0---3---0--3----|
-------------------|-------------------|-------------------------|


  cchi                                                                          
  W                   W                   W                   W                 
-------------------|-------------------|-------------------|-------------------|
-------------------|-------------------|-------------------|-------------------|
-------------------|-------------------|-------------------|-------------------|
--0----------------|--L----------------|--L----------------|--L----------------|
-------------------|-------------------|-------------------|-------------------|
-------------------|-------------------|-------------------|-------------------|


    W                                                         
|--------------------|-------------------|-------------------|
|--------------------|-------------------|-------------------|
|*-------------------|-------------------|-------------------|
|*-------------------|-------------------|-------------------|
|--------------------|-------------------|-------------------|
|--------------------|-------------------|-------------------|


                    9x                                        
--------------------||-------------------|-------------------|
--------------------||-------------------|-------------------|
-------------------*||-------------------|-------------------|
-------------------*||-------------------|-------------------|
--------------------||-------------------|-------------------|
--------------------||-------------------|-------------------|


-------------------||
-------------------||
-------------------||
-------------------||
-------------------||
-------------------||




Duration Legend
---------------
W - whole
H - half
Q - quarter
E - 8th
S - 16th
T - 32nd
X - 64th
. - note dotted
|-n-|  - n-tuplets


Tablature Legend
----------------
L - tied note
g - grace note


================================================

Youkoso! Hitori Bocchi                              
~Welcome to N.H.K.~
Compsed by: Pearl Kyoudai
Transcribed by: Justin Lincoln

Guitar

swung 8ths

     Em                    Am11/9+                       
     ^        ^      v     ^       v  ^  v     v  ^  v   
     H        Q.     E     E       E  E  E  E  E  E  E   
E||--0--------0------0--|--0-------0--0--0--L--0--0--0--|
B||--0--------0------0--|--1-------1--1--1--L--1--1--1--|
G||--0--------0------0--|--2-------2--2--2--L--2--2--0--|
D||--2--------2------2--|--0-------0--0--0--L--0--0--0--|
A||--2--------2------2--|--3-------3--3--3--L--3--3--0--|
E||--0--------0------0--|-------------------------------|


  C/G                     C/G                           Em                   
  ^    ^    ^    v  ^         v  ^  v     v  ^  v       ^    ^    ^      v   
  Q    Q    Q    E  E     E   E  E  E  E  E  E  E       Q    Q    Q.     E   
------------0-------0--|--L---0--0--0--L--0--0--0---||--0----0----0------0--|
--1----1----1----1--1--|--L---1--1--1--L--1--1--1---||--0----0----0------0--|
--0----0----0----0--0--|--L---0--0--0--L--0--0--0--*||--0----0----0------0--|
--2----2----2----2--2--|--L---2--2--2--L--2--2--2--*||--2----2----2------2--|
--3----3----3----3-----|------3--3--3--L--3--3--0---||--2----2----2------2--|
--3----3----3----3-----|------3--3--3--L--3--3--0---||--0----0----0------0--|


  Am11/9+                         C/G                   
  ^       v  ^  v     v  ^  v     ^    ^    ^    v  ^   
  E       E  E  E  E  E  E  E     Q    Q    Q    E  E   
--0-------0--0--0--L--0--0--0--|------------0-------0--|
--1-------1--1--1--L--1--1--1--|--1----1----1----1--1--|
--2-------2--2--2--L--2--2--0--|--0----0----0----0--0--|
--0-------0--0--0--L--0--0--0--|--2----2----2----2--2--|
--3-------3--3--3--L--3--3--0--|--3----3----3----3--3--|
-------------------------------|--3----3----3----3--3--|


  C/G                         Em                   
      v  ^  v     v  ^  v     ^    ^    ^      v   
  E   E  E  E  E  E  E  E     Q    Q    Q.     E   
--L---0--0--0--L--0--0--0--|--0----0----0------0--|
--L---1--1--1--L--1--1--1--|--0----0----0------0--|
--L---0--0--0--L--0--0--0--|--0----0----0------0--|
--L---2--2--2--L--2--2--2--|--2----2----2------2--|
--L---3--3--3--L--3--3--0--|--2----2----2------2--|
--L---3--3--3--L--3--3--0--|--0----0----0------0--|


  Am11/9+                         C/G                   
  ^       v  ^  v     v  ^  v     ^    ^    ^    v  ^   
  E       E  E  E  E  E  E  E     Q    Q    Q    E  E   
--0-------0--0--0--L--0--0--0--|------------0-------0--|
--1-------1--1--1--L--1--1--1--|--1----1----1----1--1--|
--2-------2--2--2--L--2--2--0--|--0----0----0----0--0--|
--0-------0--0--0--L--0--0--0--|--2----2----2----2--2--|
--3-------3--3--3--L--3--3--0--|--3----3----3----3--3--|
-------------------------------|--3----3----3----3--3--|


  C/G                         Em                   
      v  ^  v     v  ^  v     ^    ^    ^      v   
  E   E  E  E  E  E  E  E     Q    Q    Q.     E   
--L---0--0--0--L--0--0--0--|--0----0----0------0--|
--L---1--1--1--L--1--1--1--|--0----0----0------0--|
--L---0--0--0--L--0--0--0--|--0----0----0------0--|
--L---2--2--2--L--2--2--2--|--2----2----2------2--|
--L---3--3--3--L--3--3--0--|--2----2----2------2--|
--L---3--3--3--L--3--3--0--|--0----0----0------0--|


  Am11/9+                         C/G                   
  ^       v  ^  v     v  ^  v     ^    ^    ^    v  ^   
  E       E  E  E  E  E  E  E     Q    Q    Q    E  E   
--0-------0--0--0--L--0--0--0--|------------0-------0--|
--1-------1--1--1--L--1--1--1--|--1----1----1----1--1--|
--2-------2--2--2--L--2--2--0--|--0----0----0----0--0--|
--0-------0--0--0--L--0--0--0--|--2----2----2----2--2--|
--3-------3--3--3--L--3--3--0--|--3----3----3----3--3--|
-------------------------------|--3----3----3----3--3--|


  C/G                         Em                   
      v  ^  v     v  ^  v     ^    ^    ^      v   
  E   E  E  E  E  E  E  E     Q    Q    Q.     E   
--L---0--0--0--L--0--0--0--|--0----0----0------0--|
--L---1--1--1--L--1--1--1--|--0----0----0------0--|
--L---0--0--0--L--0--0--0--|--0----0----0------0--|
--L---2--2--2--L--2--2--2--|--2----2----2------2--|
--L---3--3--3--L--3--3--0--|--2----2----2------2--|
--L---3--3--3--L--3--3--0--|--0----0----0------0--|


  Am11/9+                         Em                    
  ^       v  ^  v     v  ^  v     ^    ^    ^    v  ^   
  E       E  E  E  E  E  E  E     Q    Q    Q    E  E   
--0-------0--0--0--L--0--0--0--|--0----0----0----0--0--|
--1-------1--1--1--L--1--1--1--|--0----0----0----0--0--|
--2-------2--2--2--L--2--2--0--|--0----0----0----0--0--|
--0-------0--0--0--L--0--0--0--|--2----2----2----2--2--|
--3-------3--3--3--L--3--3--0--|--2----2----2----2--2--|
-------------------------------|--0----0----0----0--0--|


  Em                         G                       G                        
     v     v  ^  v  ^  v     ^    ^    ^    v  ^        v  ^  v     v  ^  v   
  E  E  E  E  E  E  E  E     Q    Q    Q    E  E     E  E  E  E  E  E  E  E   
--L--0--0--0--L--0--0--0--|------------3-------3--|--L--3-----3--L--3-----3--|
--L--0--0--0--L--0--0--0--|--0----0----0----0--0--|--L--0--0--0--L--0--0--0--|
--L--0--0--0--L--0--0--0--|--0----0----0----0--0--|--L--0--0--0--L--0--0--0--|
--L--2--2--2--L--2--2--2--|--0----0----0----0--0--|--L--0--0--0--L--0--0--0--|
--L--2--2--2--L--2--2--2--|--2----2----2----2--2--|--L--2--2--2--L--2--2--2--|
--L--0--0--0--L--0--0--0--|--3----3----3----3--3--|--L--3--3--3--L--3--3--3--|


  F                       F                       C                     
  ^    ^    ^    ^  v     ^    ^    ^    ^  v     ^    ^    ^    ^  v   
  Q    Q    Q    E  E     Q    Q    Q    E  E     Q    Q    Q    E  E   
--1---------1----1--1--|--1---------1----1-----|--0---------0----0--0--|
--1---------1----1--1--|--1---------1----1--0--|--1----1----1----1--1--|
--2----2----2----2--2--|--2----2----2----2--0--|--0----0----0----0--0--|
--3----3----3----3--3--|--3----3----3----3--0--|--2----2----2----2--2--|
--3----3----3----3--3--|--3----3----3----3-----|--3----3----3----3--3--|
--1----1----1----1--1--|--1----1----1----1-----|-----------------------|


  C                       G                       G                     
  ^    ^    ^    ^  v     ^    ^    ^    ^  v     ^    ^    ^    ^  v   
  Q    Q    Q    E  E     Q    Q    Q    E  E     Q    Q    Q    E  E   
--0---------0----0--0--|--3---------3----3--3--|--3----3----3----3--3--|
--1----1----1----1--0--|--0----0----0----0--0--|--0----0----0----0--0--|
--0----0----0----0--0--|--0----0----0----0--0--|--0----0----0----0--0--|
--2----2----2----2--0--|--0----0----0----0--0--|--0----0----0----0--0--|
--3----3----3----3-----|--2----2----2----2--2--|--2----2----2----2--2--|
-----------------------|--3----3----3----3--3--|--3----3----3----3--3--|


  Am7                     Gm7                     F                     
  ^    ^    ^    ^  v     ^    ^    ^    ^  v     ^    ^    ^    ^  v   
  Q    Q    Q    E  E     Q    Q    Q    E  E     Q    Q    Q    E  E   
--0---------0----0--0--|--3---------3----3--3--|--1---------1----1--1--|
--1----1----1----1--1--|--3----3----3----3--3--|--1---------1----1--1--|
--2----2----2----2--2--|--3----3----3----3--3--|--2----2----2----2--2--|
--2----2----2----2--2--|--3----3----3----3--3--|--3----3----3----3--3--|
--0----0----0----0--0--|--5----5----5----5--5--|--3----3----3----3--3--|
-----------------------|--3----3----3----3--3--|--1----1----1----1--1--|


  F                       Am7                     Em/G                  
  ^    ^    ^    ^  v     ^    ^    ^    ^  v     ^    ^    ^    ^  v   
  Q    Q    Q    E  E     Q    Q    Q    E  E     Q    Q    Q    E  E   
--1---------1----1-----|--0---------0----0--0--|--0---------0----0--0--|
--1---------1----1--0--|--1----1----1----1--1--|--0----0----0----0--0--|
--2----2----2----2--0--|--2----2----2----2--2--|--0----0----0----0--0--|
--3----3----3----3--0--|--2----2----2----2--2--|--2----2----2----2--2--|
--3----3----3----3-----|--0----0----0----0--0--|--2----2----2----2--2--|
--1----1----1----1-----|-----------------------|--3----3----3----3--3--|


  D7/F#                    D7/F#                       F                 
  ^     ^    ^    ^  v           v  ^      ^  v  ^     ^                 
  Q     Q    Q    E  E     E     E  Q.     E  E  E     W                 
------------------------|---------------------------|-------------------|
-------------1----1--1--|--L-----1--1------1--1--1--|-------------------|
--2-----2----2----2--2--|--L-----2--2------2--2--2--|--2----------------|
--0-----0----0----0--0--|--L-----0--0------0--0--0--|--3----------------|
------------------------|---------------------------|--3----------------|
--2-----2----2----2--2--|--L-----2--2------2--2--2--|--1----------------|


                      C                     C                        
                      ^        ^      v     ^  v  ^  v     v  ^  v   
  W                   H        Q.     E     E  E  E  E  E  E  E  E   
-------------------|------------------0--|--0--0--0--0--L--0--0--0--|
-------------------|--1--------1------1--|--1--1--1--1--L--1--1--1--|
-------------------|--0--------0------0--|--0--0--0--0--L--0--0--0--|
-------------------|--2--------2------2--|--2--2--2--2--L--2--2--2--|
-------------------|--3--------3------3--|--3--3--3--3--L--3--3--3--|
-------------------|---------------------|--------------------------|


  Em                     Am11/9+                         C/G                   
  ^    ^    ^      v     ^       v  ^  v     v  ^  v     ^    ^    ^    v  ^   
  Q    Q    Q.     E     E       E  E  E  E  E  E  E     Q    Q    Q    E  E   
------------0------0--|--0-------0--0--0--L--0--0--0--|------------0-------0--|
------------0------0--|--1-------1--1--1--L--1--1--1--|--1----1----1----1--1--|
--0----0----0------0--|--2-------2--2--2--L--2--2--0--|--0----0----0----0--0--|
--2----2----2------2--|--0-------0--0--0--L--0--0--0--|--2----2----2----2--2--|
--2----2----2------2--|--3-------3--3--3--L--3--3--0--|--3----3----3----3--3--|
--0----0----0------0--|-------------------------------|--3----3----3----3--3--|


  C/G                         Em                   
      v  ^  v     v  ^  v     ^    ^    ^      v   
  E   E  E  E  E  E  E  E     Q    Q    Q.     E   
--L---0--0--0--L--0--0--0--|--0----0----0------0--|
--L---1--1--1--L--1--1--1--|--0----0----0------0--|
--L---0--0--0--L--0--0--0--|--0----0----0------0--|
--L---2--2--2--L--2--2--2--|--2----2----2------2--|
--L---3--3--3--L--3--3--0--|--2----2----2------2--|
--L---3--3--3--L--3--3--0--|--0----0----0------0--|


  Am11/9+                         C/G                   
  ^       v  ^  v     v  ^  v     ^    ^    ^    v  ^   
  E       E  E  E  E  E  E  E     Q    Q    Q    E  E   
--0-------0--0--0--L--0--0--0--|------------0-------0--|
--1-------1--1--1--L--1--1--1--|--1----1----1----1--1--|
--2-------2--2--2--L--2--2--0--|--0----0----0----0--0--|
--0-------0--0--0--L--0--0--0--|--2----2----2----2--2--|
--3-------3--3--3--L--3--3--0--|--3----3----3----3--3--|
-------------------------------|--3----3----3----3--3--|


  C/G                         Em                   
      v  ^  v     v  ^  v     ^    ^    ^      v   
  E   E  E  E  E  E  E  E     Q    Q    Q.     E   
--L---0--0--0--L--0--0--0--|--0---------0------0--|
--L---1--1--1--L--1--1--1--|--0----0----0------0--|
--L---0--0--0--L--0--0--0--|--0----0----0------0--|
--L---2--2--2--L--2--2--2--|--2----2----2------2--|
--L---3--3--3--L--3--3--0--|--2----2----2------2--|
--L---3--3--3--L--3--3--0--|--0----0----0------0--|


  Am11/9+                         C/G                   
  ^       v  ^  v     v  ^  v     ^    ^    ^    v  ^   
  E       E  E  E  E  E  E  E     Q    Q    Q    E  E   
--0-------0--0--0--L--0--0--0--|------------0-------0--|
--1-------1--1--1--L--1--1--1--|--1----1----1----1--1--|
--2-------2--2--2--L--2--2--0--|--0----0----0----0--0--|
--0-------0--0--0--L--0--0--0--|--2----2----2----2--2--|
--3-------3--3--3--L--3--3--0--|--3----3----3----3--3--|
-------------------------------|--3----3----3----3--3--|


  C/G                         Em                   
      v  ^  v     v  ^  v     ^    ^    ^      v   
  E   E  E  E  E  E  E  E     Q    Q    Q.     E   
--L---0--0--0--L--0--0--0--|--0----0----0------0--|
--L---1--1--1--L--1--1--1--|--0----0----0------0--|
--L---0--0--0--L--0--0--0--|--0----0----0------0--|
--L---2--2--2--L--2--2--2--|--2----2----2------2--|
--L---3--3--3--L--3--3--0--|--2----2----2------2--|
--L---3--3--3--L--3--3--0--|--0----0----0------0--|


  Am11/9+                         C/G                   
  ^       v  ^  v     v  ^  v     ^    ^    ^    v  ^   
  E       E  E  E  E  E  E  E     Q    Q    Q    E  E   
--0-------0--0--0--L--0--0--0--|------------0-------0--|
--1-------1--1--1--L--1--1--1--|--1----1----1----1--1--|
--2-------2--2--2--L--2--2--0--|--0----0----0----0--0--|
--0-------0--0--0--L--0--0--0--|--2----2----2----2--2--|
--3-------3--3--3--L--3--3--0--|--3----3----3----3--3--|
-------------------------------|--3----3----3----3--3--|


  C/G                         Em                   
      v  ^  v     v  ^  v     ^    ^    ^      v   
  E   E  E  E  E  E  E  E     Q    Q    Q.     E   
--L---0--0--0--L--0--0--0--|--0----0----0------0--|
--L---1--1--1--L--1--1--1--|--0----0----0------0--|
--L---0--0--0--L--0--0--0--|--0----0----0------0--|
--L---2--2--2--L--2--2--2--|--2----2----2------2--|
--L---3--3--3--L--3--3--0--|--2----2----2------2--|
--L---3--3--3--L--3--3--0--|--0----0----0------0--|


  Am11/9+                         C/G                   
  ^       v  ^  v     v  ^  v     ^    ^    ^    v  ^   
  E       E  E  E  E  E  E  E     Q    Q    Q    E  E   
--0-------0--0--0--L--0--0--0--|------------0-------0--|
--1-------1--1--1--L--1--1--1--|--1----1----1----1--1--|
--2-------2--2--2--L--2--2--0--|--0----0----0----0--0--|
--0-------0--0--0--L--0--0--0--|--2----2----2----2--2--|
--3-------3--3--3--L--3--3--0--|--3----3----3----3--3--|
-------------------------------|--3----3----3----3--3--|


  C/G                         Em                   
      v  ^  v     v  ^  v     ^    ^    ^      v   
  E   E  E  E  E  E  E  E     Q    Q    Q.     E   
--L---0--0--0--L--0--0--0--|--0----0----0------0--|
--L---1--1--1--L--1--1--1--|--0----0----0------0--|
--L---0--0--0--L--0--0--0--|--0----0----0------0--|
--L---2--2--2--L--2--2--2--|--2----2----2------2--|
--L---3--3--3--L--3--3--0--|--2----2----2------2--|
--L---3--3--3--L--3--3--0--|--0----0----0------0--|


  Am11/9+                         Em                    
  ^       v  ^  v     v  ^  v     ^    ^    ^    v  ^   
  E       E  E  E  E  E  E  E     Q    Q    Q    E  E   
--0-------0--0--0--L--0--0--0--|--0----0----0----0--0--|
--1-------1--1--1--L--1--1--1--|--0----0----0----0--0--|
--2-------2--2--2--L--2--2--0--|--0----0----0----0--0--|
--0-------0--0--0--L--0--0--0--|--2----2----2----2--2--|
--3-------3--3--3--L--3--3--0--|--2----2----2----2--2--|
-------------------------------|--0----0----0----0--0--|


  Em                         G                       G                        
     v     v  ^  v  ^  v     ^    ^    ^    v  ^        v  ^  v     v  ^  v   
  E  E  E  E  E  E  E  E     Q    Q    Q    E  E     E  E  E  E  E  E  E  E   
--L--0--0--0--L--0--0--0--|------------3-------3--|--L--3-----3--L--3-----3--|
--L--0--0--0--L--0--0--0--|--0----0----0----0--0--|--L--0--0--0--L--0--0--0--|
--L--0--0--0--L--0--0--0--|--0----0----0----0--0--|--L--0--0--0--L--0--0--0--|
--L--2--2--2--L--2--2--2--|--0----0----0----0--0--|--L--0--0--0--L--0--0--0--|
--L--2--2--2--L--2--2--2--|--2----2----2----2--2--|--L--2--2--2--L--2--2--2--|
--L--0--0--0--L--0--0--0--|--3----3----3----3--3--|--L--3--3--3--L--3--3--3--|


  F                       F                       C                     
  ^    ^    ^    ^  v     ^    ^    ^    ^  v     ^    ^    ^    ^  v   
  Q    Q    Q    E  E     Q    Q    Q    E  E     Q    Q    Q    E  E   
--1---------1----1--1--|--1---------1----1-----|--0---------0----0--0--|
--1---------1----1--1--|--1---------1----1--0--|--1----1----1----1--1--|
--2----2----2----2--2--|--2----2----2----2--0--|--0----0----0----0--0--|
--3----3----3----3--3--|--3----3----3----3--0--|--2----2----2----2--2--|
--3----3----3----3--3--|--3----3----3----3-----|--3----3----3----3--3--|
--1----1----1----1--1--|--1----1----1----1-----|-----------------------|


  C                       G                       G                     
  ^    ^    ^    ^  v     ^    ^    ^    ^  v     ^    ^    ^    ^  v   
  Q    Q    Q    E  E     Q    Q    Q    E  E     Q    Q    Q    E  E   
--0---------0----0--0--|--3---------3----3--3--|--3----3----3----3--3--|
--1----1----1----1--0--|--0----0----0----0--0--|--0----0----0----0--0--|
--0----0----0----0--0--|--0----0----0----0--0--|--0----0----0----0--0--|
--2----2----2----2--0--|--0----0----0----0--0--|--0----0----0----0--0--|
--3----3----3----3-----|--2----2----2----2--2--|--2----2----2----2--2--|
-----------------------|--3----3----3----3--3--|--3----3----3----3--3--|


  Am7                     Gm7                      F                     
  ^    ^    ^    ^  v     ^    ^    ^  v  ^  v     ^    ^    ^    ^  v   
  Q    Q    Q    E  E     Q    Q    E  E  E  E     Q    Q    Q    E  E   
--0---------0----0--0--|--3---------3--3--3--3--|--1---------1----1--1--|
--1----1----1----1--1--|--3----3----3--3--3--3--|--1---------1----1--1--|
--2----2----2----2--2--|--3----3----3--3--3--3--|--2----2----2----2--2--|
--2----2----2----2--2--|--3----3----3--3--3--3--|--3----3----3----3--3--|
--0----0----0----0--0--|--5----5----5--5--5--5--|--3----3----3----3--3--|
-----------------------|--3----3----3--3--3--3--|--1----1----1----1--1--|


  F                       Am7                     Em/G                  
  ^    ^    ^    ^  v     ^    ^    ^    ^  v     ^    ^    ^    ^  v   
  Q    Q    Q    E  E     Q    Q    Q    E  E     Q    Q    Q    E  E   
--1---------1----1-----|--0---------0----0--0--|--0---------0----0--0--|
--1---------1----1--0--|--1----1----1----1--1--|--0----0----0----0--0--|
--2----2----2----2--0--|--2----2----2----2--2--|--0----0----0----0--0--|
--3----3----3----3--0--|--2----2----2----2--2--|--2----2----2----2--2--|
--3----3----3----3-----|--0----0----0----0--0--|--2----2----2----2--2--|
--1----1----1----1-----|-----------------------|--3----3----3----3--3--|


  D7/F#                    D7/F#                       F                 
  ^     ^    ^    ^  v           v  ^      ^  v  ^     ^                 
  Q     Q    Q    E  E     E     E  Q.     E  E  E     W                 
------------------------|---------------------------|-------------------|
-------------1----1--1--|--L-----1--1------1--1--1--|-------------------|
--2-----2----2----2--2--|--L-----2--2------2--2--2--|--2----------------|
--0-----0----0----0--0--|--L-----0--0------0--0--0--|--3----------------|
------------------------|---------------------------|--3----------------|
--2-----2----2----2--2--|--L-----2--2------2--2--2--|--1----------------|


                      C                       C                        
                      ^    ^    ^    ^  v     ^  v  ^  v  ^  v  ^  v   
  W                   Q    Q    Q    E  E     E  E  E  E  E  E  E  E   
-------------------|-----------------0--0--|--0--0--0--0--0--0--0--0--|
-------------------|--1---------1----1--1--|--1--1--1--1--1--1--1--1--|
-------------------|--0----0----0----0--0--|--0--0--0--0--0--0--0--0--|
-------------------|--2----2----2----2--2--|--2--2--2--2--2--2--2--2--|
-------------------|--3----3----3----3--3--|--3--3--3--3--3--3--3--3--|
-------------------|-----------------------|--------------------------|


  Em                     Am11/9+                         C/G                   
  ^    ^    ^      v     ^       v  ^  v     v  ^  v     ^    ^    ^    v  ^   
  Q    Q    Q.     E     E       E  E  E  E  E  E  E     Q    Q    Q    E  E   
--0----0----0------0--|--0-------0--0--0--L--0--0--0--|------------0-------0--|
--0----0----0------0--|--1-------1--1--1--L--1--1--1--|--1----1----1----1--1--|
--0----0----0------0--|--2-------2--2--2--L--2--2--0--|--0----0----0----0--0--|
--2----2----2------2--|--0-------0--0--0--L--0--0--0--|--2----2----2----2--2--|
--2----2----2------2--|--3-------3--3--3--L--3--3--0--|--3----3----3----3--3--|
--0----0----0------0--|-------------------------------|--3----3----3----3--3--|


  C/G                         Em                   
      v  ^  v     v  ^  v     ^    ^    ^      v   
  E   E  E  E  E  E  E  E     Q    Q    Q.     E   
--L---0--0--0--L--0--0--0--|--0----0----0------0--|
--L---1--1--1--L--1--1--1--|--0----0----0------0--|
--L---0--0--0--L--0--0--0--|--0----0----0------0--|
--L---2--2--2--L--2--2--2--|--2----2----2------2--|
--L---3--3--3--L--3--3--0--|--2----2----2------2--|
--L---3--3--3--L--3--3--0--|--0----0----0------0--|


  Am11/9+                         C/G                   
  ^       v  ^  v     v  ^  v     ^    ^    ^    v  ^   
  E       E  E  E  E  E  E  E     Q    Q    Q    E  E   
--0-------0--0--0--L--0--0--0--|------------0-------0--|
--1-------1--1--1--L--1--1--1--|--1----1----1----1--1--|
--2-------2--2--2--L--2--2--0--|--0----0----0----0--0--|
--0-------0--0--0--L--0--0--0--|--2----2----2----2--2--|
--3-------3--3--3--L--3--3--0--|--3----3----3----3--3--|
-------------------------------|--3----3----3----3--3--|


  C/G                         Em                   
      v  ^  v     v  ^  v     ^    ^    ^      v   
  E   E  E  E  E  E  E  E     Q    Q    Q.     E   
--L---0--0--0--L--0--0--0--|--0----0----0------0--|
--L---1--1--1--L--1--1--1--|--0----0----0------0--|
--L---0--0--0--L--0--0--0--|--0----0----0------0--|
--L---2--2--2--L--2--2--2--|--2----2----2------2--|
--L---3--3--3--L--3--3--0--|--2----2----2------2--|
--L---3--3--3--L--3--3--0--|--0----0----0------0--|


  Am11/9+                         C/G                   
  ^       v  ^  v     v  ^  v     ^    ^    ^    v  ^   
  E       E  E  E  E  E  E  E     Q    Q    Q    E  E   
--0-------0--0--0--L--0--0--0--|------------0-------0--|
--1-------1--1--1--L--1--1--1--|--1----1----1----1--1--|
--2-------2--2--2--L--2--2--0--|--0----0----0----0--0--|
--0-------0--0--0--L--0--0--0--|--2----2----2----2--2--|
--3-------3--3--3--L--3--3--0--|--3----3----3----3--3--|
-------------------------------|--3----3----3----3--3--|


  C/G                         Em                   
      v  ^  v     v  ^  v     ^    ^    ^      v   
  E   E  E  E  E  E  E  E     Q    Q    Q.     E   
--L---0--0--0--L--0--0--0--|--0----0----0------0--|
--L---1--1--1--L--1--1--1--|--0----0----0------0--|
--L---0--0--0--L--0--0--0--|--0----0----0------0--|
--L---2--2--2--L--2--2--2--|--2----2----2------2--|
--L---3--3--3--L--3--3--0--|--2----2----2------2--|
--L---3--3--3--L--3--3--0--|--0----0----0------0--|


  Am11/9+                         C/G                   
  ^       v  ^  v     v  ^  v     ^    ^    ^    v  ^   
  E       E  E  E  E  E  E  E     Q    Q    Q    E  E   
--0-------0--0--0--L--0--0--0--|------------0-------0--|
--1-------1--1--1--L--1--1--1--|--1----1----1----1--1--|
--2-------2--2--2--L--2--2--0--|--0----0----0----0--0--|
--0-------0--0--0--L--0--0--0--|--2----2----2----2--2--|
--3-------3--3--3--L--3--3--0--|--3----3----3----3--3--|
-------------------------------|--3----3----3----3--3--|


  C/G                           Em                   
      v  ^  v     v  ^  v       ^    ^    ^      v   
  E   E  E  E  E  E  E  E       Q    Q    Q.     E   
--L---0--0--0--L--0--0--0--||---0----0----0------0--|
--L---1--1--1--L--1--1--1--||---0----0----0------0--|
--L---0--0--0--L--0--0--0--||*--0----0----0------0--|
--L---2--2--2--L--2--2--2--||*--2----2----2------2--|
--L---3--3--3--L--3--3--0--||---2----2----2------2--|
--L---3--3--3--L--3--3--0--||---0----0----0------0--|


  Am11/9+                         C/G                   
  ^       v  ^  v     v  ^  v     ^    ^    ^    v  ^   
  E       E  E  E  E  E  E  E     Q    Q    Q    E  E   
--0-------0--0--0--L--0--0--0--|------------0-------0--|
--1-------1--1--1--L--1--1--1--|--1----1----1----1--1--|
--2-------2--2--2--L--2--2--0--|--0----0----0----0--0--|
--0-------0--0--0--L--0--0--0--|--2----2----2----2--2--|
--3-------3--3--3--L--3--3--0--|--3----3----3----3--3--|
-------------------------------|--3----3----3----3--3--|


  C/G                           Em                    Am11/9+           
      v  ^  v     v  ^  v       ^        ^      v     ^                 
  E   E  E  E  E  E  E  E   9x  H        Q.     E     W                 
--L---0--0--0--L--0--0--0---||--0--------L------0--|--0----------------|
--L---1--1--1--L--1--1--1---||--0--------L------0--|--1----------------|
--L---0--0--0--L--0--0--0--*||--0--------L------0--|--2----------------|
--L---2--2--2--L--2--2--2--*||--2--------L------2--|--0----------------|
--L---3--3--3--L--3--3--0---||--2--------L------2--|--3----------------|
--L---3--3--3--L--3--3--0---||--0--------L------0--|-------------------|


  C/G                
  ^                  
  W                  
-------------------||
--1----------------||
--0----------------||
--2----------------||
--3----------------||
--3----------------||




Duration Legend
---------------
W - whole
H - half
Q - quarter
E - 8th
S - 16th
T - 32nd
X - 64th
. - note dotted
|-n-|  - n-tuplets


Tablature Legend
----------------
L - tied note
^ - brush up
v - brush down

8 comments on Youkoso! Hitori Bocchi

Hm, the more I listen to the

Hm, the more I listen to the original, the more I think that the second chord of the main riff is wrong.

Probably

0
1
2
3
3
-

Maybe it's just me but I

Maybe it's just me but I don't hear the high E...

I think it's just

-
1
2
0
3
-

I was just filling out the

I was just filling out the chord, I think he mutes the high E with the side of the index finger. I changed my mind again, I'm gonna leave it as is. The most I might do is go back and take out the high E's but that just seems like a lot of work for something so minor.

Thank you

Thank you soooooooooooooooooooooooooooooooooooooooooooooooooooo much!
I love this song! arigato gozaimasu

Man.. I remember watching

Man.. I remember watching this anime back in 2006 and really falling in love it, so I decided to watch it again this year and it really hit me hard knowing how much deeper the show really is to me. When I first watched the anime I understood the storyline for what it was, but now watching it again, I can see that those years ago when I first watched the show that I wasn't watching just an anime, I was actually watching myself.

Ahah, I wont go in depth but, this really is more of a film then just an anime, and now that I can actually play one of my favorite songs from it, it just makes me feel happy knowing how much I've grown. ^^ So fun playing this song, especially when I'm a bit down or stressed out. I can just really put all my emotion into playing and it sounds wonderful. <3

Alternate second chord

Another variation on the second chord in the main riff, which might be easier (and more accurate): A4

-
3
2
0
0
-

Give it a whirl sometime.

Give me a measure number

Give me a measure number because I'm not seeing it.

I've finished to see this

5

I've finished to see this anime a few days ago and now that's a real pleasure to be able to play this song thanks to you Kabukibear.
Thank you !!!!!!! =D