Login or Register to remove this ad. | Advertise Here

Pegasus Fantasy (Saint Seiya) Guitar Tab

Submitted: Sep 29, 2007 by daniellu14

4.588235
Average: 4.6 (17 votes)
Download | Listen
Game: Saint Seiya
Composer(s): Seiji Yokoyama
Style: Transcription

AutoScroll: Slow | Medium | Fast
Saint Seiya-Pegasus Fantasy
e---3-1----------------------3-1---4--------1--3----3-1-1-
B--4----3-----1-4-3------1-4-----3------3-4--------------4
G-5-------3-1--------3-0----------3---5-------------------
D---------------------------------------------------------
A---------------------------------------------------------
E---------------------------------------------------------

e-1-------------------1----1-3---3--3-6-7-------3---3-1-1-
B---4-3---1-3-4---3-4----4------------------4-6----------4
G----------------------------------------5-7--------------
D---------------------------------------------------------
A---------------------------------------------------------
E---------------------------------------------------------

e-1--------------------3-1------------4--3-3-1-3--1-1-----
B---4-3---1-3-4--3-1-4-----4--3-3--1----------------------
G--------------------------------3-------------------3-3-3
D---------------------------------------------------------
A---------------------------------------------------------
E---------------------------------------------------------

e-6-4-3-1--------------------1----1---------------1--3-3
B--------4--1-3-4--3-1-4--3-1--4-3------0-1-3--4--------
G----------------------------------3-3-3----------------
D-------------------------------------------------------
A-------------------------------------------------------
E-------------------------------------------------------

e-1-3-1----------3------1-1--1-6--4-3-3-1-3--1-3---1--3-3
B------4-3--1--1----3-4---------------------4-----4------
G--------------------------------------------------------
D--------------------------------------------------------
A--------------------------------------------------------
E--------------------------------------------------------

e-1-3--1----------3-------1-1------1-1---4-3-1-3----8--8--8---
B--------4-3--1-1-----3-4------3-4----------------------------
G-------------------------------------------------------------
D-------------------------------------------------------------
A-------------------------------------------------------------
E-------------------------------------------------------------

*Note: When you get to a note that is supposed to sound longer, you can bend
it if you like the sound of it.

7 comments on Pegasus Fantasy

sounds really good, great

sounds really good, great job

SUENA MUY GREAT JOB ,HA Y

SUENA MUY GREAT JOB ,HA Y SIGUE ASI

great!!!!!! PERFECTSOUND!

great!!!!!! PERFECTSOUND!

sounds very good but is not

4

sounds very good but is not complete.....so sad.....good job man...

Very good

5

Very good

hey man, can some one please

hey man, can some one please upload what this tab ACTUALLY sounds like. I'm a beginner and I can't get the rtheym right or something. The tab sounds good until the end of the first section as shown below.

e---3-1----------------------3-1---4--------1--3-
B--4----3-----1-4-3------1-4-----3------3-4------
G-5-------3-1--------3-0----------3---5----------
D------------------------------------------------
A------------------------------------------------
E------------------------------------------------

Thanks a million.

Oh God, why.. just why! We

Oh God, why.. just why! We either have this unfinished version or the hard neoclassical version, in both ways I wouldn't be able to learn the full version of Pegasus fantasy.