Login or Register to remove this ad. | Advertise Here

Tank! (Cowboy Bebop) Bass Tab

Submitted: Aug 29, 2006 by archard (Last updated: May 07, 2008)

4.8
Average: 4.8 (10 votes)
Download | Listen
Game: Cowboy Bebop
Composer(s): Yoko Kanno
Style: Transcription

AutoScroll: Slow | Medium | Fast
Tank!
Cowboy Bebop
Composed by Yoko Kanno
Tabbed by Richard Schaefer (richard@gametabs.net)
8/30/06

This song is basically just 3 riffs. You can figure out where they belong.

G-----0------------
D---------4-3--2---
A--3-------------1-
E------------------

G-----5---4-3--1--
D--3-------------1
A-----------------
E-----------------

G----0-----0-----1-----2----------------
D--------0-----0-----1-----2------------
A--1---------------------------0---0-1-2
E---------------------------------------

17 comments on Tank!

Not an avid anime fan, but I

Not an avid anime fan, but I love cowboy bebop!

I dont think this is exactly

I dont think this is exactly right. when u listen to it, it sounds like hes doing full bar chords but only playing the bass part of it...i believe these would be called power chords >.> thats what it sounds like to me though

It's not a power chord,

It's not a power chord, they're riffs only.

Wheres the regular guitar

Wheres the regular guitar tab!? Not all of us play bass. Seriously, you would be like agod if u could tab the whole song to guitar.

theres not really guitar in

theres not really guitar in it as far as know its just bass and instruments like trumpets and such , i could be wrong tho , other words u could just experiment with this tab on a guitar and be creative to foigure it out ur self.. a good guitarist should have no problem

Rofl, if you've ever heard

Rofl, if you've ever heard the theme song and/or played a guitar you'd know there IS no guitar in the theme song.

>.>

<.<

&>:-{||})
You're Fired.
^
|
|
|
Donald Trump

by lead he means the

by lead he means the trrumpet bit.. that goes all the way through..

There is a guitar in the

5

There is a guitar in the real folk blues. It's just doing chords softly in the background. Turn the music up really loud and listen in the back ground for it, you will also hear a marimba every now and then around 1:19

i dont know about this tab

i dont know about this tab im playing it and the last part doesnt sound like it fits anywhere and the end of the 1st tab sound like it just stops i think ur missing a note or 2. if u play it you might know what i mean

es un contra bajo idiotas

es un contra bajo idiotas

Cowboy Bebop Songs with

4

Cowboy Bebop Songs with Major Guitar:
Don't Bother None
Want it All Back
I think there's a rhythm part in What Planet is This
Diggin'
There's more but I forget them.

right here's the bass tab

right here's the bass tab that i've been playing on my guitar homies x) enjoy...

starts with this once...
e[- - - - - - - - - - -]
B[- - - - - - - - - - -]
G[- - - - - - - - - - -]
D[- - - - - - - - - - -]
A[- - - - - - - - - - -]
E[- 0 - 7 - 6 - 5 - 3 -]

and is to be followed from there on with...
e[- - - - - - - - - - - - -]
B[- - - - - - - - - - - - -]
G[- - - - - - - - - - - - -]
D[- - - - - - - - - - - - -]
A[- - - - - - - - - - - - -]
E[- 0 - 0 - 7 - 6 - 5 - 3 -]
right... uh tat's all i have and even if there was anymore... thats all i feel like doing

If any one here was smart

5

If any one here was smart you'd realize that E A D G are ALSO on a six string, they're the top four strings, this tab CAN be used on a regular guitar if you disregard the B and lil' e strings. It just won't sound as deep obviously because the strings are'nt as beefy.

can u do one for electric

can u do one for electric guitar plz? ty

Order of playing

5

Basically you play the riffs like this

1st set through intro (3... 2... 1... lets jam.)

1st set 4 times
2nd set 2 times
1st set 2 times
3rd set 1 time
repeat.

After the second time there's a bit of improvisation that the riffs listed won't give be much help for, but this should be enough.

Great job Archard.

First of all. He is playing a

First of all. He is playing a stand up bass. The tabs are correct but they are missing certin hammer-ons to make it sound spot on. I dont know how to submit tabs or I'd give it to you correct, but from the first riff you do an

G-----0------------
D---------4-3--2---
A--3------------0(hammeron)1- 
E------------------

do the same for when it changes octives for the second part

Outro part (a bit after 3:00

Outro part (a bit after 3:00 from the ost version).


     E.  S E  E  H           S S S S E  E  Q    Q     
G||-----------0--L--------|--L-4-0-------------------|
D||------0-L--------------|--------0-0---------------|
A||-----------------------|-------------2------------|
E||--3--------------------|----------------3---------|


  E.  S E  E  S  S  S  S  S  S  S  S  
-----------0--L----------------11-12-|
------0-L----------------12-14-------|
----------------12-14-15-------------|
--3----------------------------------|


   S  S  S  S  S  S  S  S  S  S  S  S  Q       E.  S E  E  E.  S E  E   
--12-12-12-12-12-12-12-12-12-12-12-12-12----|--------------------------|
--------------------------------------------|--------------------------|
--------------------------------------------|--3---2-L--1--L---0-L-----|
--------------------------------------------|-----------------------4--|


                             ^                    
  E.  S E  E  E.  S E  E     Q    Q    H          
--------------------------|---------------------||
--------------------------|---------------------||
--------------------------|--3------------------||
--L---3-L--2--L---1-L--0--|---------------------||

Then the end-end is on a C (A string, fret #3) again. And yeah, double bass.